  0
SECTION
  2
HEADER
  9
$ACADVER
  1
AC1015
  9
$ACADMAINTVER
 70
    20
  9
$DWGCODEPAGE
  3
ANSI_932
  9
$INSBASE
 10
0.0
 20
0.0
 30
0.0
  9
$EXTMIN
 10
-0.0000176695612026
 20
-0.0000243919639615
 30
0.0
  9
$EXTMAX
 10
8109.999982330439
 20
5639.999975608036
 30
0.0
  9
$LIMMIN
 10
0.0
 20
0.0
  9
$LIMMAX
 10
420.0
 20
297.0
  9
$ORTHOMODE
 70
     0
  9
$REGENMODE
 70
     1
  9
$FILLMODE
 70
     1
  9
$QTEXTMODE
 70
     0
  9
$MIRRTEXT
 70
     0
  9
$LTSCALE
 40
1.0
  9
$ATTMODE
 70
     1
  9
$TEXTSIZE
 40
2.5
  9
$TRACEWID
 40
1.0
  9
$TEXTSTYLE
  7
Standard
  9
$CLAYER
  8
0
  9
$CELTYPE
  6
ByLayer
  9
$CECOLOR
 62
   256
  9
$CELTSCALE
 40
1.0
  9
$DISPSILH
 70
     0
  9
$DIMSCALE
 40
1.0
  9
$DIMASZ
 40
2.5
  9
$DIMEXO
 40
0.625
  9
$DIMDLI
 40
3.75
  9
$DIMRND
 40
0.0
  9
$DIMDLE
 40
0.0
  9
$DIMEXE
 40
1.25
  9
$DIMTP
 40
0.0
  9
$DIMTM
 40
0.0
  9
$DIMTXT
 40
2.5
  9
$DIMCEN
 40
2.5
  9
$DIMTSZ
 40
0.0
  9
$DIMTOL
 70
     0
  9
$DIMLIM
 70
     0
  9
$DIMTIH
 70
     0
  9
$DIMTOH
 70
     0
  9
$DIMSE1
 70
     0
  9
$DIMSE2
 70
     0
  9
$DIMTAD
 70
     1
  9
$DIMZIN
 70
     8
  9
$DIMBLK
  1

  9
$DIMASO
 70
     1
  9
$DIMSHO
 70
     1
  9
$DIMPOST
  1

  9
$DIMAPOST
  1

  9
$DIMALT
 70
     0
  9
$DIMALTD
 70
     3
  9
$DIMALTF
 40
0.03937007874016
  9
$DIMLFAC
 40
1.0
  9
$DIMTOFL
 70
     1
  9
$DIMTVP
 40
0.0
  9
$DIMTIX
 70
     0
  9
$DIMSOXD
 70
     0
  9
$DIMSAH
 70
     0
  9
$DIMBLK1
  1

  9
$DIMBLK2
  1

  9
$DIMSTYLE
  2
ISO-25
  9
$DIMCLRD
 70
     0
  9
$DIMCLRE
 70
     0
  9
$DIMCLRT
 70
     0
  9
$DIMTFAC
 40
1.0
  9
$DIMGAP
 40
0.625
  9
$DIMJUST
 70
     0
  9
$DIMSD1
 70
     0
  9
$DIMSD2
 70
     0
  9
$DIMTOLJ
 70
     0
  9
$DIMTZIN
 70
     8
  9
$DIMALTZ
 70
     0
  9
$DIMALTTZ
 70
     0
  9
$DIMUPT
 70
     0
  9
$DIMDEC
 70
     2
  9
$DIMTDEC
 70
     2
  9
$DIMALTU
 70
     2
  9
$DIMALTTD
 70
     3
  9
$DIMTXSTY
  7
Standard
  9
$DIMAUNIT
 70
     0
  9
$DIMADEC
 70
     0
  9
$DIMALTRND
 40
0.0
  9
$DIMAZIN
 70
     0
  9
$DIMDSEP
 70
    46
  9
$DIMATFIT
 70
     3
  9
$DIMFRAC
 70
     0
  9
$DIMLDRBLK
  1

  9
$DIMLUNIT
 70
     2
  9
$DIMLWD
 70
    -2
  9
$DIMLWE
 70
    -2
  9
$DIMTMOVE
 70
     0
  9
$LUNITS
 70
     2
  9
$LUPREC
 70
     4
  9
$SKETCHINC
 40
1.0
  9
$FILLETRAD
 40
0.0
  9
$AUNITS
 70
     0
  9
$AUPREC
 70
     0
  9
$MENU
  1
.
  9
$ELEVATION
 40
0.0
  9
$PELEVATION
 40
0.0
  9
$THICKNESS
 40
0.0
  9
$LIMCHECK
 70
     0
  9
$CHAMFERA
 40
0.0
  9
$CHAMFERB
 40
0.0
  9
$CHAMFERC
 40
0.0
  9
$CHAMFERD
 40
0.0
  9
$SKPOLY
 70
     0
  9
$TDCREATE
 40
2457338.625301366
  9
$TDUCREATE
 40
2457338.250301366
  9
$TDUPDATE
 40
2457338.627169225
  9
$TDUUPDATE
 40
2457338.252169225
  9
$TDINDWG
 40
0.0018680324
  9
$TDUSRTIMER
 40
0.0018680324
  9
$USRTIMER
 70
     1
  9
$ANGBASE
 50
0.0
  9
$ANGDIR
 70
     0
  9
$PDMODE
 70
     0
  9
$PDSIZE
 40
0.0
  9
$PLINEWID
 40
0.0
  9
$SPLFRAME
 70
     0
  9
$SPLINETYPE
 70
     6
  9
$SPLINESEGS
 70
     8
  9
$HANDSEED
  5
837
  9
$SURFTAB1
 70
     6
  9
$SURFTAB2
 70
     6
  9
$SURFTYPE
 70
     6
  9
$SURFU
 70
     6
  9
$SURFV
 70
     6
  9
$UCSBASE
  2

  9
$UCSNAME
  2

  9
$UCSORG
 10
0.0
 20
0.0
 30
0.0
  9
$UCSXDIR
 10
1.0
 20
0.0
 30
0.0
  9
$UCSYDIR
 10
0.0
 20
1.0
 30
0.0
  9
$UCSORTHOREF
  2

  9
$UCSORTHOVIEW
 70
     0
  9
$UCSORGTOP
 10
0.0
 20
0.0
 30
0.0
  9
$UCSORGBOTTOM
 10
0.0
 20
0.0
 30
0.0
  9
$UCSORGLEFT
 10
0.0
 20
0.0
 30
0.0
  9
$UCSORGRIGHT
 10
0.0
 20
0.0
 30
0.0
  9
$UCSORGFRONT
 10
0.0
 20
0.0
 30
0.0
  9
$UCSORGBACK
 10
0.0
 20
0.0
 30
0.0
  9
$PUCSBASE
  2

  9
$PUCSNAME
  2

  9
$PUCSORG
 10
0.0
 20
0.0
 30
0.0
  9
$PUCSXDIR
 10
1.0
 20
0.0
 30
0.0
  9
$PUCSYDIR
 10
0.0
 20
1.0
 30
0.0
  9
$PUCSORTHOREF
  2

  9
$PUCSORTHOVIEW
 70
     0
  9
$PUCSORGTOP
 10
0.0
 20
0.0
 30
0.0
  9
$PUCSORGBOTTOM
 10
0.0
 20
0.0
 30
0.0
  9
$PUCSORGLEFT
 10
0.0
 20
0.0
 30
0.0
  9
$PUCSORGRIGHT
 10
0.0
 20
0.0
 30
0.0
  9
$PUCSORGFRONT
 10
0.0
 20
0.0
 30
0.0
  9
$PUCSORGBACK
 10
0.0
 20
0.0
 30
0.0
  9
$USERI1
 70
     0
  9
$USERI2
 70
     0
  9
$USERI3
 70
     0
  9
$USERI4
 70
     0
  9
$USERI5
 70
     0
  9
$USERR1
 40
0.0
  9
$USERR2
 40
0.0
  9
$USERR3
 40
0.0
  9
$USERR4
 40
0.0
  9
$USERR5
 40
0.0
  9
$WORLDVIEW
 70
     1
  9
$SHADEDGE
 70
     3
  9
$SHADEDIF
 70
    70
  9
$TILEMODE
 70
     1
  9
$MAXACTVP
 70
    64
  9
$PINSBASE
 10
0.0
 20
0.0
 30
0.0
  9
$PLIMCHECK
 70
     0
  9
$PEXTMIN
 10
1.000000000000000E+20
 20
1.000000000000000E+20
 30
1.000000000000000E+20
  9
$PEXTMAX
 10
-1.000000000000000E+20
 20
-1.000000000000000E+20
 30
-1.000000000000000E+20
  9
$PLIMMIN
 10
0.0
 20
0.0
  9
$PLIMMAX
 10
420.0
 20
297.0
  9
$UNITMODE
 70
     0
  9
$VISRETAIN
 70
     1
  9
$PLINEGEN
 70
     0
  9
$PSLTSCALE
 70
     1
  9
$TREEDEPTH
 70
  3020
  9
$CMLSTYLE
  2
Standard
  9
$CMLJUST
 70
     0
  9
$CMLSCALE
 40
20.0
  9
$PROXYGRAPHICS
 70
     1
  9
$MEASUREMENT
 70
     1
  9
$CELWEIGHT
370
    -1
  9
$ENDCAPS
280
     0
  9
$JOINSTYLE
280
     0
  9
$LWDISPLAY
290
     0
  9
$INSUNITS
 70
     4
  9
$HYPERLINKBASE
  1

  9
$STYLESHEET
  1

  9
$XEDIT
290
     1
  9
$CEPSNTYPE
380
     0
  9
$PSTYLEMODE
290
     1
  9
$FINGERPRINTGUID
  2
{22EA0827-1F33-43A6-B624-15CB681D5931}
  9
$VERSIONGUID
  2
{DA3CFE7C-9109-4BB2-A18E-95C43B9CAB80}
  9
$EXTNAMES
290
     1
  9
$PSVPSCALE
 40
0.0
  9
$OLESTARTUP
290
     0
  0
ENDSEC
  0
SECTION
  2
CLASSES
  0
CLASS
  1
ACDBDICTIONARYWDFLT
  2
AcDbDictionaryWithDefault
  3
ObjectDBX Classes
 90
        0
280
     0
281
     0
  0
CLASS
  1
DICTIONARYVAR
  2
AcDbDictionaryVar
  3
ObjectDBX Classes
 90
        0
280
     0
281
     0
  0
CLASS
  1
ACDBPLACEHOLDER
  2
AcDbPlaceHolder
  3
ObjectDBX Classes
 90
        0
280
     0
281
     0
  0
CLASS
  1
LAYOUT
  2
AcDbLayout
  3
ObjectDBX Classes
 90
        0
280
     0
281
     0
  0
ENDSEC
  0
SECTION
  2
TABLES
  0
TABLE
  2
VPORT
  5
8
330
0
100
AcDbSymbolTable
 70
     4
  0
VPORT
  5
82F
330
8
100
AcDbSymbolTableRecord
100
AcDbViewportTableRecord
  2
*Active
 70
     0
 10
0.0
 20
0.0
 11
1.0
 21
1.0
 12
3913.129088543477
 22
2826.838723414476
 13
0.0
 23
0.0
 14
10.0
 24
10.0
 15
10.0
 25
10.0
 16
0.0
 26
0.0
 36
1.0
 17
0.0
 27
0.0
 37
0.0
 40
5986.602513582258
 41
1.499378881987577
 42
50.0
 43
0.0
 44
0.0
 50
0.0
 51
0.0
 71
     0
 72
  1000
 73
     1
 74
     3
 75
     0
 76
     0
 77
     0
 78
     0
281
     0
 65
     1
110
0.0
120
0.0
130
0.0
111
1.0
121
0.0
131
0.0
112
0.0
122
1.0
132
0.0
 79
     0
146
0.0
  0
ENDTAB
  0
TABLE
  2
LTYPE
  5
5
330
0
100
AcDbSymbolTable
 70
     3
  0
LTYPE
  5
14
330
5
100
AcDbSymbolTableRecord
100
AcDbLinetypeTableRecord
  2
ByBlock
 70
     0
  3

 72
    65
 73
     0
 40
0.0
  0
LTYPE
  5
15
330
5
100
AcDbSymbolTableRecord
100
AcDbLinetypeTableRecord
  2
ByLayer
 70
     0
  3

 72
    65
 73
     0
 40
0.0
  0
LTYPE
  5
16
330
5
100
AcDbSymbolTableRecord
100
AcDbLinetypeTableRecord
  2
Continuous
 70
     0
  3
Solid line
 72
    65
 73
     0
 40
0.0
  0
LTYPE
  5
2D
330
5
100
AcDbSymbolTableRecord
100
AcDbLinetypeTableRecord
  2
CENTER
 70
     0
  3
- ･ - ･ - ･ - ･ 
 72
    65
 73
     4
 40
50.5
 49
30.0
 74
     0
 49
-9.0
 74
     0
 49
2.5
 74
     0
 49
-9.0
 74
     0
  0
LTYPE
  5
2E
330
5
100
AcDbSymbolTableRecord
100
AcDbLinetypeTableRecord
  2
AM_ISO08W050
 70
     0
  3
____ . ____ . ____ . ____ . ____ . ____ . ____
 72
    65
 73
     4
 40
18.0
 49
12.0
 74
     0
 49
-1.5
 74
     0
 49
3.0
 74
     0
 49
-1.5
 74
     0
  0
ENDTAB
  0
TABLE
  2
LAYER
  5
2
102
{ACAD_XDICTIONARY
360
41
102
}
330
0
100
AcDbSymbolTable
 70
     6
  0
LAYER
  5
10
330
2
100
AcDbSymbolTableRecord
100
AcDbLayerTableRecord
  2
0
 70
     0
 62
     7
  6
Continuous
370
    -3
390
F
  0
LAYER
  5
2F
330
2
100
AcDbSymbolTableRecord
100
AcDbLayerTableRecord
  2
1
 70
     0
 62
     7
  6
CENTER
370
    -3
390
F
  0
LAYER
  5
30
330
2
100
AcDbSymbolTableRecord
100
AcDbLayerTableRecord
  2
25
 70
     0
 62
     4
  6
Continuous
370
    -3
390
F
  0
LAYER
  5
31
102
{ACAD_XDICTIONARY
360
32
102
}
330
2
100
AcDbSymbolTableRecord
100
AcDbLayerTableRecord
  2
AM_0
 70
     0
 62
     7
  6
Continuous
370
    18
390
F
  0
LAYER
  5
34
102
{ACAD_XDICTIONARY
360
35
102
}
330
2
100
AcDbSymbolTableRecord
100
AcDbLayerTableRecord
  2
AM_4
 70
     0
 62
     3
  6
Continuous
370
    25
390
F
  0
LAYER
  5
37
102
{ACAD_XDICTIONARY
360
38
102
}
330
2
100
AcDbSymbolTableRecord
100
AcDbLayerTableRecord
  2
AM_7
 70
     0
 62
     4
  6
AM_ISO08W050
370
    25
390
F
  0
ENDTAB
  0
TABLE
  2
STYLE
  5
3
330
0
100
AcDbSymbolTable
 70
     2
  0
STYLE
  5
11
330
3
100
AcDbSymbolTableRecord
100
AcDbTextStyleTableRecord
  2
Standard
 70
     0
 40
0.0
 41
1.0
 50
0.0
 71
     0
 42
2.5
  3

  4

1001
ACAD
1000
MS Gothic
1071
    32817
  0
STYLE
  5
3A
330
3
100
AcDbSymbolTableRecord
100
AcDbTextStyleTableRecord
  2
MSゴシック
 70
     0
 40
0.0
 41
0.7
 50
0.0
 71
     0
 42
100.0
  3

  4

1001
ACAD
1000
MS Gothic
1071
    32817
  0
ENDTAB
  0
TABLE
  2
VIEW
  5
6
330
0
100
AcDbSymbolTable
 70
     0
  0
ENDTAB
  0
TABLE
  2
UCS
  5
7
330
0
100
AcDbSymbolTable
 70
     0
  0
ENDTAB
  0
TABLE
  2
APPID
  5
9
330
0
100
AcDbSymbolTable
 70
     7
  0
APPID
  5
12
330
9
100
AcDbSymbolTableRecord
100
AcDbRegAppTableRecord
  2
ACAD
 70
     0
  0
APPID
  5
3B
330
9
100
AcDbSymbolTableRecord
100
AcDbRegAppTableRecord
  2
GENIUS_GENODEF_13
 70
     0
  0
APPID
  5
3C
330
9
100
AcDbSymbolTableRecord
100
AcDbRegAppTableRecord
  2
GENIUS_GENREC_14
 70
     0
  0
APPID
  5
3D
330
9
100
AcDbSymbolTableRecord
100
AcDbRegAppTableRecord
  2
GENIUS_GENOBJ-N-REC_13
 70
     0
  0
APPID
  5
3E
330
9
100
AcDbSymbolTableRecord
100
AcDbRegAppTableRecord
  2
GENIUS_GENFIL_13
 70
     0
  0
APPID
  5
3F
330
9
100
AcDbSymbolTableRecord
100
AcDbRegAppTableRecord
  2
GENIUS_GENOBJ-N-CHA_13
 70
     0
  0
APPID
  5
40
330
9
100
AcDbSymbolTableRecord
100
AcDbRegAppTableRecord
  2
GENIUS_GENOBJ-N-FIL_13
 70
     0
  0
ENDTAB
  0
TABLE
  2
DIMSTYLE
  5
A
330
0
100
AcDbSymbolTable
 70
     1
100
AcDbDimStyleTable
 71
     0
  0
DIMSTYLE
105
29
330
A
100
AcDbSymbolTableRecord
100
AcDbDimStyleTableRecord
  2
ISO-25
 70
     0
 41
2.5
 42
0.625
 43
3.75
 44
1.25
 73
     0
 74
     0
 77
     1
 78
     8
140
2.5
141
2.5
143
0.03937007874016
147
0.625
171
     3
172
     1
271
     2
272
     2
274
     3
283
     0
284
     8
340
11
  0
ENDTAB
  0
TABLE
  2
BLOCK_RECORD
  5
1
330
0
100
AcDbSymbolTable
 70
     2
  0
BLOCK_RECORD
  5
21
330
1
100
AcDbSymbolTableRecord
100
AcDbBlockTableRecord
  2
*Model_Space
340
24
  0
BLOCK_RECORD
  5
1D
330
1
100
AcDbSymbolTableRecord
100
AcDbBlockTableRecord
  2
*Paper_Space
340
20
  0
BLOCK_RECORD
  5
25
330
1
100
AcDbSymbolTableRecord
100
AcDbBlockTableRecord
  2
*Paper_Space0
340
28
  0
ENDTAB
  0
ENDSEC
  0
SECTION
  2
BLOCKS
  0
BLOCK
  5
22
330
21
100
AcDbEntity
  8
0
100
AcDbBlockBegin
  2
*Model_Space
 70
     0
 10
0.0
 20
0.0
 30
0.0
  3
*Model_Space
  1

  0
ENDBLK
  5
23
330
21
100
AcDbEntity
  8
0
100
AcDbBlockEnd
  0
BLOCK
  5
1E
330
1D
100
AcDbEntity
 67
     1
  8
0
100
AcDbBlockBegin
  2
*Paper_Space
 70
     0
 10
0.0
 20
0.0
 30
0.0
  3
*Paper_Space
  1

  0
ENDBLK
  5
1F
330
1D
100
AcDbEntity
 67
     1
  8
0
100
AcDbBlockEnd
  0
BLOCK
  5
26
330
25
100
AcDbEntity
 67
     1
  8
0
100
AcDbBlockBegin
  2
*Paper_Space0
 70
     0
 10
0.0
 20
0.0
 30
0.0
  3
*Paper_Space0
  1

  0
ENDBLK
  5
27
330
25
100
AcDbEntity
 67
     1
  8
0
100
AcDbBlockEnd
  0
ENDSEC
  0
SECTION
  2
ENTITIES
  0
LINE
  5
439
330
21
100
AcDbEntity
  8
0
  6
ByBlock
 62
     0
370
    -2
100
AcDbLine
 10
2754.519565330439
 20
3652.800677269094
 30
0.0
 11
2754.519565330439
 21
3622.800677269093
 31
0.0
  0
LINE
  5
43A
330
21
100
AcDbEntity
  8
0
  6
ByBlock
 62
     0
370
    -2
100
AcDbLine
 10
2759.519565330438
 20
3622.800677269093
 30
0.0
 11
2754.519565330439
 21
3652.800677269094
 31
0.0
  0
LINE
  5
43B
330
21
100
AcDbEntity
  8
0
  6
ByBlock
 62
     0
370
    -2
100
AcDbLine
 10
2749.519565330438
 20
3622.800677269093
 30
0.0
 11
2754.519565330439
 21
3652.800677269094
 31
0.0
  0
LINE
  5
43C
330
21
100
AcDbEntity
  8
0
  6
ByBlock
 62
     0
370
    -2
100
AcDbLine
 10
2754.519565330439
 20
3452.800677269016
 30
0.0
 11
2754.519565330439
 21
3482.800677269015
 31
0.0
  0
LINE
  5
43D
330
21
100
AcDbEntity
  8
0
  6
ByBlock
 62
     0
370
    -2
100
AcDbLine
 10
2749.519565330438
 20
3482.800677269015
 30
0.0
 11
2754.519565330439
 21
3452.800677269016
 31
0.0
  0
LINE
  5
43E
330
21
100
AcDbEntity
  8
0
  6
ByBlock
 62
     0
370
    -2
100
AcDbLine
 10
2759.519565330438
 20
3482.800677269015
 30
0.0
 11
2754.519565330439
 21
3452.800677269016
 31
0.0
  0
TEXT
  5
43F
330
21
100
AcDbEntity
  8
1
 62
     7
100
AcDbText
 10
2807.019565330435
 20
3516.800677269053
 30
0.0
 40
40.0
  1
200
 50
90.0
 41
0.7
100
AcDbText
  0
LINE
  5
440
330
21
100
AcDbEntity
  8
0
  6
ByBlock
 62
     0
370
    -2
100
AcDbLine
 10
2754.519565330439
 20
3452.800677269016
 30
0.0
 11
2754.519565330439
 21
3422.800677269015
 31
0.0
  0
LINE
  5
441
330
21
100
AcDbEntity
  8
0
  6
ByBlock
 62
     0
370
    -2
100
AcDbLine
 10
2759.519565330438
 20
3422.800677269015
 30
0.0
 11
2754.519565330439
 21
3452.800677269016
 31
0.0
  0
LINE
  5
442
330
21
100
AcDbEntity
  8
0
  6
ByBlock
 62
     0
370
    -2
100
AcDbLine
 10
2749.519565330438
 20
3422.800677269015
 30
0.0
 11
2754.519565330439
 21
3452.800677269016
 31
0.0
  0
LINE
  5
443
330
21
100
AcDbEntity
  8
0
  6
ByBlock
 62
     0
370
    -2
100
AcDbLine
 10
2754.519565330439
 20
3252.800677269017
 30
0.0
 11
2754.519565330439
 21
3282.800677269017
 31
0.0
  0
LINE
  5
444
330
21
100
AcDbEntity
  8
0
  6
ByBlock
 62
     0
370
    -2
100
AcDbLine
 10
2749.519565330438
 20
3282.800677269017
 30
0.0
 11
2754.519565330439
 21
3252.800677269017
 31
0.0
  0
LINE
  5
445
330
21
100
AcDbEntity
  8
0
  6
ByBlock
 62
     0
370
    -2
100
AcDbLine
 10
2759.519565330438
 20
3282.800677269017
 30
0.0
 11
2754.519565330439
 21
3252.800677269017
 31
0.0
  0
TEXT
  5
446
330
21
100
AcDbEntity
  8
1
 62
     7
100
AcDbText
 10
2807.019565330435
 20
3316.800677269017
 30
0.0
 40
40.0
  1
200
 50
90.0
 41
0.7
100
AcDbText
  0
LINE
  5
447
330
21
100
AcDbEntity
  8
0
  6
ByBlock
 62
     0
370
    -2
100
AcDbLine
 10
2054.745616330438
 20
4098.453879269018
 30
0.0
 11
2084.745616330438
 21
4098.453879269018
 31
0.0
  0
LINE
  5
448
330
21
100
AcDbEntity
  8
0
  6
ByBlock
 62
     0
370
    -2
100
AcDbLine
 10
2084.745616330438
 20
4103.453879269018
 30
0.0
 11
2054.745616330438
 21
4098.453879269018
 31
0.0
  0
LINE
  5
449
330
21
100
AcDbEntity
  8
0
  6
ByBlock
 62
     0
370
    -2
100
AcDbLine
 10
2084.745616330438
 20
4093.453879269018
 30
0.0
 11
2054.745616330438
 21
4098.453879269018
 31
0.0
  0
LINE
  5
44A
330
21
100
AcDbEntity
  8
0
  6
ByBlock
 62
     0
370
    -2
100
AcDbLine
 10
2454.745616330438
 20
4098.453879269018
 30
0.0
 11
2424.745616330438
 21
4098.453879269018
 31
0.0
  0
LINE
  5
44B
330
21
100
AcDbEntity
  8
0
  6
ByBlock
 62
     0
370
    -2
100
AcDbLine
 10
2424.745616330438
 20
4093.453879269018
 30
0.0
 11
2454.745616330438
 21
4098.453879269018
 31
0.0
  0
LINE
  5
44C
330
21
100
AcDbEntity
  8
0
  6
ByBlock
 62
     0
370
    -2
100
AcDbLine
 10
2424.745616330438
 20
4103.453879269018
 30
0.0
 11
2454.745616330438
 21
4098.453879269018
 31
0.0
  0
TEXT
  5
44D
330
21
100
AcDbEntity
  8
1
 62
     7
100
AcDbText
 10
2218.745616330438
 20
4110.953879269017
 30
0.0
 40
40.0
  1
400
 41
0.7
100
AcDbText
  0
LINE
  5
44E
330
21
100
AcDbEntity
  8
0
  6
ByBlock
 62
     0
370
    -2
100
AcDbLine
 10
2947.187509330439
 20
3652.800677269094
 30
0.0
 11
2947.187509330439
 21
3622.800677269093
 31
0.0
  0
LINE
  5
44F
330
21
100
AcDbEntity
  8
0
  6
ByBlock
 62
     0
370
    -2
100
AcDbLine
 10
2952.187509330439
 20
3622.800677269093
 30
0.0
 11
2947.187509330439
 21
3652.800677269094
 31
0.0
  0
LINE
  5
450
330
21
100
AcDbEntity
  8
0
  6
ByBlock
 62
     0
370
    -2
100
AcDbLine
 10
2942.187509330439
 20
3622.800677269093
 30
0.0
 11
2947.187509330439
 21
3652.800677269094
 31
0.0
  0
LINE
  5
451
330
21
100
AcDbEntity
  8
0
  6
ByBlock
 62
     0
370
    -2
100
AcDbLine
 10
2947.187509330439
 20
3172.800677269017
 30
0.0
 11
2947.187509330439
 21
3202.800677269017
 31
0.0
  0
LINE
  5
452
330
21
100
AcDbEntity
  8
0
  6
ByBlock
 62
     0
370
    -2
100
AcDbLine
 10
2942.187509330439
 20
3202.800677269017
 30
0.0
 11
2947.187509330439
 21
3172.800677269017
 31
0.0
  0
LINE
  5
453
330
21
100
AcDbEntity
  8
0
  6
ByBlock
 62
     0
370
    -2
100
AcDbLine
 10
2952.187509330439
 20
3202.800677269017
 30
0.0
 11
2947.187509330439
 21
3172.800677269017
 31
0.0
  0
TEXT
  5
454
330
21
100
AcDbEntity
  8
1
 62
     7
100
AcDbText
 10
2999.687509330436
 20
3376.800677269056
 30
0.0
 40
40.0
  1
480
 50
90.0
 41
0.7
100
AcDbText
  0
LINE
  5
455
330
21
100
AcDbEntity
  8
0
  6
ByBlock
 62
     0
370
    -2
100
AcDbLine
 10
1654.745616330438
 20
4098.453879269018
 30
0.0
 11
1684.745616330438
 21
4098.453879269018
 31
0.0
  0
LINE
  5
456
330
21
100
AcDbEntity
  8
0
  6
ByBlock
 62
     0
370
    -2
100
AcDbLine
 10
1684.745616330438
 20
4103.453879269018
 30
0.0
 11
1654.745616330438
 21
4098.453879269018
 31
0.0
  0
LINE
  5
457
330
21
100
AcDbEntity
  8
0
  6
ByBlock
 62
     0
370
    -2
100
AcDbLine
 10
1684.745616330438
 20
4093.453879269018
 30
0.0
 11
1654.745616330438
 21
4098.453879269018
 31
0.0
  0
LINE
  5
458
330
21
100
AcDbEntity
  8
0
  6
ByBlock
 62
     0
370
    -2
100
AcDbLine
 10
2054.745616330438
 20
4098.453879269018
 30
0.0
 11
2024.745616330438
 21
4098.453879269018
 31
0.0
  0
LINE
  5
459
330
21
100
AcDbEntity
  8
0
  6
ByBlock
 62
     0
370
    -2
100
AcDbLine
 10
2024.745616330438
 20
4093.453879269018
 30
0.0
 11
2054.745616330438
 21
4098.453879269018
 31
0.0
  0
LINE
  5
45A
330
21
100
AcDbEntity
  8
0
  6
ByBlock
 62
     0
370
    -2
100
AcDbLine
 10
2024.745616330438
 20
4103.453879269018
 30
0.0
 11
2054.745616330438
 21
4098.453879269018
 31
0.0
  0
TEXT
  5
45B
330
21
100
AcDbEntity
  8
1
 62
     7
100
AcDbText
 10
1818.745616330438
 20
4110.953879269017
 30
0.0
 40
40.0
  1
400
 41
0.7
100
AcDbText
  0
LINE
  5
45C
330
21
100
AcDbEntity
  8
0
  6
ByBlock
 62
     0
370
    -2
100
AcDbLine
 10
2754.519565330439
 20
3252.800677269017
 30
0.0
 11
2754.519565330439
 21
3282.800677269017
 31
0.0
  0
LINE
  5
45D
330
21
100
AcDbEntity
  8
0
  6
ByBlock
 62
     0
370
    -2
100
AcDbLine
 10
2749.519565330438
 20
3282.800677269017
 30
0.0
 11
2754.519565330439
 21
3252.800677269017
 31
0.0
  0
LINE
  5
45E
330
21
100
AcDbEntity
  8
0
  6
ByBlock
 62
     0
370
    -2
100
AcDbLine
 10
2759.519565330438
 20
3282.800677269017
 30
0.0
 11
2754.519565330439
 21
3252.800677269017
 31
0.0
  0
LINE
  5
45F
330
21
100
AcDbEntity
  8
0
  6
ByBlock
 62
     0
370
    -2
100
AcDbLine
 10
2754.519565330439
 20
3172.800677269017
 30
0.0
 11
2754.519565330439
 21
3142.800677269017
 31
0.0
  0
LINE
  5
460
330
21
100
AcDbEntity
  8
0
  6
ByBlock
 62
     0
370
    -2
100
AcDbLine
 10
2759.519565330438
 20
3142.800677269017
 30
0.0
 11
2754.519565330439
 21
3172.800677269017
 31
0.0
  0
LINE
  5
461
330
21
100
AcDbEntity
  8
0
  6
ByBlock
 62
     0
370
    -2
100
AcDbLine
 10
2749.519565330438
 20
3142.800677269017
 30
0.0
 11
2754.519565330439
 21
3172.800677269017
 31
0.0
  0
TEXT
  5
462
330
21
100
AcDbEntity
  8
1
 62
     7
100
AcDbText
 10
2807.019565330435
 20
3190.134010602351
 30
0.0
 40
40.0
  1
80
 50
90.0
 41
0.7
100
AcDbText
  0
LINE
  5
463
330
21
100
AcDbEntity
  8
0
  6
ByBlock
 62
     0
370
    -2
100
AcDbLine
 10
1654.745616330438
 20
2777.451738269018
 30
0.0
 11
1684.745616330438
 21
2777.451738269018
 31
0.0
  0
LINE
  5
464
330
21
100
AcDbEntity
  8
0
  6
ByBlock
 62
     0
370
    -2
100
AcDbLine
 10
1684.745616330438
 20
2782.451738269017
 30
0.0
 11
1654.745616330438
 21
2777.451738269018
 31
0.0
  0
LINE
  5
465
330
21
100
AcDbEntity
  8
0
  6
ByBlock
 62
     0
370
    -2
100
AcDbLine
 10
1684.745616330438
 20
2772.451738269018
 30
0.0
 11
1654.745616330438
 21
2777.451738269018
 31
0.0
  0
LINE
  5
466
330
21
100
AcDbEntity
  8
0
  6
ByBlock
 62
     0
370
    -2
100
AcDbLine
 10
2454.745616330438
 20
2777.451738269018
 30
0.0
 11
2424.745616330438
 21
2777.451738269018
 31
0.0
  0
LINE
  5
467
330
21
100
AcDbEntity
  8
0
  6
ByBlock
 62
     0
370
    -2
100
AcDbLine
 10
2424.745616330438
 20
2772.451738269018
 30
0.0
 11
2454.745616330438
 21
2777.451738269018
 31
0.0
  0
LINE
  5
468
330
21
100
AcDbEntity
  8
0
  6
ByBlock
 62
     0
370
    -2
100
AcDbLine
 10
2424.745616330438
 20
2782.451738269017
 30
0.0
 11
2454.745616330438
 21
2777.451738269018
 31
0.0
  0
TEXT
  5
469
330
21
100
AcDbEntity
  8
1
 62
     7
100
AcDbText
 10
2018.745616330438
 20
2724.951738269018
 30
0.0
 40
40.0
  1
800
 41
0.7
100
AcDbText
  0
LINE
  5
46A
330
21
100
AcDbEntity
  8
0
  6
ByBlock
 62
     0
370
    -2
100
AcDbLine
 10
5009.444412330438
 20
4564.665819289316
 30
0.0
 11
4979.444412330439
 21
4564.665819289316
 31
0.0
  0
LINE
  5
46B
330
21
100
AcDbEntity
  8
0
  6
ByBlock
 62
     0
370
    -2
100
AcDbLine
 10
4979.444412330439
 20
4559.665819289316
 30
0.0
 11
5009.444412330438
 21
4564.665819289316
 31
0.0
  0
LINE
  5
46C
330
21
100
AcDbEntity
  8
0
  6
ByBlock
 62
     0
370
    -2
100
AcDbLine
 10
4979.444412330439
 20
4569.665819289315
 30
0.0
 11
5009.444412330438
 21
4564.665819289316
 31
0.0
  0
LINE
  5
46D
330
21
100
AcDbEntity
  8
0
  6
ByBlock
 62
     0
370
    -2
100
AcDbLine
 10
4059.444412330438
 20
4564.665819289316
 30
0.0
 11
4089.444412330438
 21
4564.665819289316
 31
0.0
  0
LINE
  5
46E
330
21
100
AcDbEntity
  8
0
  6
ByBlock
 62
     0
370
    -2
100
AcDbLine
 10
4089.444412330438
 20
4569.665819289315
 30
0.0
 11
4059.444412330438
 21
4564.665819289316
 31
0.0
  0
LINE
  5
46F
330
21
100
AcDbEntity
  8
0
  6
ByBlock
 62
     0
370
    -2
100
AcDbLine
 10
4089.444412330438
 20
4559.665819289316
 30
0.0
 11
4059.444412330438
 21
4564.665819289316
 31
0.0
  0
TEXT
  5
470
330
21
100
AcDbEntity
  8
1
 62
     7
100
AcDbText
 10
4498.444412330438
 20
4577.165819289315
 30
0.0
 40
40.0
  1
950
 41
0.7
100
AcDbText
  0
LINE
  5
471
330
21
100
AcDbEntity
  8
0
  6
ByBlock
 62
     0
370
    -2
100
AcDbLine
 10
5009.444412330438
 20
4564.665819289316
 30
0.0
 11
5039.444412330438
 21
4564.665819289316
 31
0.0
  0
LINE
  5
472
330
21
100
AcDbEntity
  8
0
  6
ByBlock
 62
     0
370
    -2
100
AcDbLine
 10
5039.444412330438
 20
4569.665819289315
 30
0.0
 11
5009.444412330438
 21
4564.665819289316
 31
0.0
  0
LINE
  5
473
330
21
100
AcDbEntity
  8
0
  6
ByBlock
 62
     0
370
    -2
100
AcDbLine
 10
5039.444412330438
 20
4559.665819289316
 30
0.0
 11
5009.444412330438
 21
4564.665819289316
 31
0.0
  0
LINE
  5
474
330
21
100
AcDbEntity
  8
0
  6
ByBlock
 62
     0
370
    -2
100
AcDbLine
 10
5959.444412330438
 20
4564.665819289316
 30
0.0
 11
5929.444412330439
 21
4564.665819289316
 31
0.0
  0
LINE
  5
475
330
21
100
AcDbEntity
  8
0
  6
ByBlock
 62
     0
370
    -2
100
AcDbLine
 10
5929.444412330439
 20
4559.665819289316
 30
0.0
 11
5959.444412330438
 21
4564.665819289316
 31
0.0
  0
LINE
  5
476
330
21
100
AcDbEntity
  8
0
  6
ByBlock
 62
     0
370
    -2
100
AcDbLine
 10
5929.444412330439
 20
4569.665819289315
 30
0.0
 11
5959.444412330438
 21
4564.665819289316
 31
0.0
  0
TEXT
  5
477
330
21
100
AcDbEntity
  8
1
 62
     7
100
AcDbText
 10
5448.444412330438
 20
4577.165819289315
 30
0.0
 40
40.0
  1
950
 41
0.7
100
AcDbText
  0
LINE
  5
478
330
21
100
AcDbEntity
  8
0
  6
ByBlock
 62
     0
370
    -2
100
AcDbLine
 10
4867.403639829295
 20
4272.800677269017
 30
0.0
 11
4867.403639829295
 21
4242.800677269016
 31
0.0
  0
LINE
  5
479
330
21
100
AcDbEntity
  8
0
  6
ByBlock
 62
     0
370
    -2
100
AcDbLine
 10
4872.403639829296
 20
4242.800677269016
 30
0.0
 11
4867.403639829295
 21
4272.800677269017
 31
0.0
  0
LINE
  5
47A
330
21
100
AcDbEntity
  8
0
  6
ByBlock
 62
     0
370
    -2
100
AcDbLine
 10
4862.403639829295
 20
4242.800677269016
 30
0.0
 11
4867.403639829295
 21
4272.800677269017
 31
0.0
  0
LINE
  5
47B
330
21
100
AcDbEntity
  8
0
  6
ByBlock
 62
     0
370
    -2
100
AcDbLine
 10
4867.403639829295
 20
3872.800677269017
 30
0.0
 11
4867.403639829295
 21
3902.800677269017
 31
0.0
  0
LINE
  5
47C
330
21
100
AcDbEntity
  8
0
  6
ByBlock
 62
     0
370
    -2
100
AcDbLine
 10
4862.403639829295
 20
3902.800677269017
 30
0.0
 11
4867.403639829295
 21
3872.800677269017
 31
0.0
  0
LINE
  5
47D
330
21
100
AcDbEntity
  8
0
  6
ByBlock
 62
     0
370
    -2
100
AcDbLine
 10
4872.403639829296
 20
3902.800677269017
 30
0.0
 11
4867.403639829295
 21
3872.800677269017
 31
0.0
  0
TEXT
  5
47E
330
21
100
AcDbEntity
  8
1
 62
     7
100
AcDbText
 10
4854.903639829292
 20
4036.800677269017
 30
0.0
 40
40.0
  1
400
 50
90.0
 41
0.7
100
AcDbText
  0
LINE
  5
47F
330
21
100
AcDbEntity
  8
0
  6
ByBlock
 62
     0
370
    -2
100
AcDbLine
 10
3729.13689133044
 20
3872.800677269017
 30
0.0
 11
3729.13689133044
 21
3842.800677269017
 31
0.0
  0
LINE
  5
480
330
21
100
AcDbEntity
  8
0
  6
ByBlock
 62
     0
370
    -2
100
AcDbLine
 10
3734.13689133044
 20
3842.800677269017
 30
0.0
 11
3729.13689133044
 21
3872.800677269017
 31
0.0
  0
LINE
  5
481
330
21
100
AcDbEntity
  8
0
  6
ByBlock
 62
     0
370
    -2
100
AcDbLine
 10
3724.13689133044
 20
3842.800677269017
 30
0.0
 11
3729.13689133044
 21
3872.800677269017
 31
0.0
  0
LINE
  5
482
330
21
100
AcDbEntity
  8
0
  6
ByBlock
 62
     0
370
    -2
100
AcDbLine
 10
3729.13689133044
 20
3472.800677269017
 30
0.0
 11
3729.13689133044
 21
3502.800677269017
 31
0.0
  0
LINE
  5
483
330
21
100
AcDbEntity
  8
0
  6
ByBlock
 62
     0
370
    -2
100
AcDbLine
 10
3724.13689133044
 20
3502.800677269017
 30
0.0
 11
3729.13689133044
 21
3472.800677269017
 31
0.0
  0
LINE
  5
484
330
21
100
AcDbEntity
  8
0
  6
ByBlock
 62
     0
370
    -2
100
AcDbLine
 10
3734.13689133044
 20
3502.800677269017
 30
0.0
 11
3729.13689133044
 21
3472.800677269017
 31
0.0
  0
TEXT
  5
485
330
21
100
AcDbEntity
  8
1
 62
     7
100
AcDbText
 10
3716.636891330437
 20
3636.800677269017
 30
0.0
 40
40.0
  1
400
 50
90.0
 41
0.7
100
AcDbText
  0
LINE
  5
486
330
21
100
AcDbEntity
  8
0
  6
ByBlock
 62
     0
370
    -2
100
AcDbLine
 10
4809.444412330439
 20
4433.209789270433
 30
0.0
 11
4839.444412330438
 21
4433.209789270433
 31
0.0
  0
LINE
  5
487
330
21
100
AcDbEntity
  8
0
  6
ByBlock
 62
     0
370
    -2
100
AcDbLine
 10
4839.444412330438
 20
4438.209789270433
 30
0.0
 11
4809.444412330439
 21
4433.209789270433
 31
0.0
  0
LINE
  5
488
330
21
100
AcDbEntity
  8
0
  6
ByBlock
 62
     0
370
    -2
100
AcDbLine
 10
4839.444412330438
 20
4428.209789270433
 30
0.0
 11
4809.444412330439
 21
4433.209789270433
 31
0.0
  0
LINE
  5
489
330
21
100
AcDbEntity
  8
0
  6
ByBlock
 62
     0
370
    -2
100
AcDbLine
 10
5209.444412330441
 20
4433.209789270433
 30
0.0
 11
5179.44441233044
 21
4433.209789270433
 31
0.0
  0
LINE
  5
48A
330
21
100
AcDbEntity
  8
0
  6
ByBlock
 62
     0
370
    -2
100
AcDbLine
 10
5179.44441233044
 20
4428.209789270433
 30
0.0
 11
5209.444412330441
 21
4433.209789270433
 31
0.0
  0
LINE
  5
48B
330
21
100
AcDbEntity
  8
0
  6
ByBlock
 62
     0
370
    -2
100
AcDbLine
 10
5179.44441233044
 20
4438.209789270433
 30
0.0
 11
5209.444412330441
 21
4433.209789270433
 31
0.0
  0
TEXT
  5
48C
330
21
100
AcDbEntity
  8
1
 62
     7
100
AcDbText
 10
4973.444412330439
 20
4445.709789270433
 30
0.0
 40
40.0
  1
400
 41
0.7
100
AcDbText
  0
TEXT
  5
48D
330
21
100
AcDbEntity
  8
1
 62
     7
100
AcDbText
 10
4011.803436913772
 20
4724.783034269018
 30
0.0
 40
40.0
  1
50
 41
0.7
100
AcDbText
  0
LINE
  5
48E
330
21
100
AcDbEntity
  8
0
  6
ByBlock
 62
     0
370
    -2
100
AcDbLine
 10
4059.444412330438
 20
4681.033034269018
 30
0.0
 11
4089.444412330438
 21
4681.033034269018
 31
0.0
  0
LINE
  5
48F
330
21
100
AcDbEntity
  8
0
  6
ByBlock
 62
     0
370
    -2
100
AcDbLine
 10
4089.444412330438
 20
4686.033034269017
 30
0.0
 11
4059.444412330438
 21
4681.033034269018
 31
0.0
  0
LINE
  5
490
330
21
100
AcDbEntity
  8
0
  6
ByBlock
 62
     0
370
    -2
100
AcDbLine
 10
4089.444412330438
 20
4676.033034269017
 30
0.0
 11
4059.444412330438
 21
4681.033034269018
 31
0.0
  0
LINE
  5
491
330
21
100
AcDbEntity
  8
0
  6
ByBlock
 62
     0
370
    -2
100
AcDbLine
 10
4009.495794830438
 20
4681.033034269018
 30
0.0
 11
3979.495794830438
 21
4681.033034269018
 31
0.0
  0
LINE
  5
492
330
21
100
AcDbEntity
  8
0
  6
ByBlock
 62
     0
370
    -2
100
AcDbLine
 10
3979.495794830438
 20
4676.033034269017
 30
0.0
 11
4009.495794830438
 21
4681.033034269018
 31
0.0
  0
LINE
  5
493
330
21
100
AcDbEntity
  8
0
  6
ByBlock
 62
     0
370
    -2
100
AcDbLine
 10
3979.495794830438
 20
4686.033034269017
 30
0.0
 11
4009.495794830438
 21
4681.033034269018
 31
0.0
  0
TEXT
  5
494
330
21
100
AcDbEntity
  8
1
 62
     7
100
AcDbText
 10
5961.777745663772
 20
4764.783034269018
 30
0.0
 40
40.0
  1
50
 41
0.7
100
AcDbText
  0
LINE
  5
495
330
21
100
AcDbEntity
  8
0
  6
ByBlock
 62
     0
370
    -2
100
AcDbLine
 10
5959.444412330438
 20
4681.033034269018
 30
0.0
 11
5929.444412330439
 21
4681.033034269018
 31
0.0
  0
LINE
  5
496
330
21
100
AcDbEntity
  8
0
  6
ByBlock
 62
     0
370
    -2
100
AcDbLine
 10
5929.444412330439
 20
4676.033034269017
 30
0.0
 11
5959.444412330438
 21
4681.033034269018
 31
0.0
  0
LINE
  5
497
330
21
100
AcDbEntity
  8
0
  6
ByBlock
 62
     0
370
    -2
100
AcDbLine
 10
5929.444412330439
 20
4686.033034269017
 30
0.0
 11
5959.444412330438
 21
4681.033034269018
 31
0.0
  0
LINE
  5
498
330
21
100
AcDbEntity
  8
0
  6
ByBlock
 62
     0
370
    -2
100
AcDbLine
 10
6009.444412330438
 20
4681.033034269018
 30
0.0
 11
6039.444412330438
 21
4681.033034269018
 31
0.0
  0
LINE
  5
499
330
21
100
AcDbEntity
  8
0
  6
ByBlock
 62
     0
370
    -2
100
AcDbLine
 10
6039.444412330438
 20
4686.033034269017
 30
0.0
 11
6009.444412330438
 21
4681.033034269018
 31
0.0
  0
LINE
  5
49A
330
21
100
AcDbEntity
  8
0
  6
ByBlock
 62
     0
370
    -2
100
AcDbLine
 10
6039.444412330438
 20
4676.033034269017
 30
0.0
 11
6009.444412330438
 21
4681.033034269018
 31
0.0
  0
LINE
  5
49B
330
21
100
AcDbEntity
  8
0
  6
ByBlock
 62
     0
370
    -2
100
AcDbLine
 10
4059.444412330438
 20
4681.033034269018
 30
0.0
 11
4089.444412330438
 21
4681.033034269018
 31
0.0
  0
LINE
  5
49C
330
21
100
AcDbEntity
  8
0
  6
ByBlock
 62
     0
370
    -2
100
AcDbLine
 10
4089.444412330438
 20
4686.033034269017
 30
0.0
 11
4059.444412330438
 21
4681.033034269018
 31
0.0
  0
LINE
  5
49D
330
21
100
AcDbEntity
  8
0
  6
ByBlock
 62
     0
370
    -2
100
AcDbLine
 10
4089.444412330438
 20
4676.033034269017
 30
0.0
 11
4059.444412330438
 21
4681.033034269018
 31
0.0
  0
LINE
  5
49E
330
21
100
AcDbEntity
  8
0
  6
ByBlock
 62
     0
370
    -2
100
AcDbLine
 10
5959.444412330438
 20
4681.033034269018
 30
0.0
 11
5929.444412330439
 21
4681.033034269018
 31
0.0
  0
LINE
  5
49F
330
21
100
AcDbEntity
  8
0
  6
ByBlock
 62
     0
370
    -2
100
AcDbLine
 10
5929.444412330439
 20
4676.033034269017
 30
0.0
 11
5959.444412330438
 21
4681.033034269018
 31
0.0
  0
LINE
  5
4A0
330
21
100
AcDbEntity
  8
0
  6
ByBlock
 62
     0
370
    -2
100
AcDbLine
 10
5929.444412330439
 20
4686.033034269017
 30
0.0
 11
5959.444412330438
 21
4681.033034269018
 31
0.0
  0
TEXT
  5
4A1
330
21
100
AcDbEntity
  8
1
 62
     7
100
AcDbText
 10
4962.777745663771
 20
4693.533034269018
 30
0.0
 40
40.0
  1
1900
 41
0.7
100
AcDbText
  0
LINE
  5
4A2
330
21
100
AcDbEntity
  8
0
  6
ByBlock
 62
     0
370
    -2
100
AcDbLine
 10
4009.495794830438
 20
4806.711907269018
 30
0.0
 11
4039.495794830438
 21
4806.711907269018
 31
0.0
  0
LINE
  5
4A3
330
21
100
AcDbEntity
  8
0
  6
ByBlock
 62
     0
370
    -2
100
AcDbLine
 10
4039.495794830438
 20
4811.711907269018
 30
0.0
 11
4009.495794830438
 21
4806.711907269018
 31
0.0
  0
LINE
  5
4A4
330
21
100
AcDbEntity
  8
0
  6
ByBlock
 62
     0
370
    -2
100
AcDbLine
 10
4039.495794830438
 20
4801.711907269019
 30
0.0
 11
4009.495794830438
 21
4806.711907269018
 31
0.0
  0
LINE
  5
4A5
330
21
100
AcDbEntity
  8
0
  6
ByBlock
 62
     0
370
    -2
100
AcDbLine
 10
6009.354169330439
 20
4806.711907269018
 30
0.0
 11
5979.35416933044
 21
4806.711907269018
 31
0.0
  0
LINE
  5
4A6
330
21
100
AcDbEntity
  8
0
  6
ByBlock
 62
     0
370
    -2
100
AcDbLine
 10
5979.35416933044
 20
4801.711907269019
 30
0.0
 11
6009.354169330439
 21
4806.711907269018
 31
0.0
  0
LINE
  5
4A7
330
21
100
AcDbEntity
  8
0
  6
ByBlock
 62
     0
370
    -2
100
AcDbLine
 10
5979.35416933044
 20
4811.711907269018
 30
0.0
 11
6009.354169330439
 21
4806.711907269018
 31
0.0
  0
TEXT
  5
4A8
330
21
100
AcDbEntity
  8
1
 62
     7
100
AcDbText
 10
4960.091648747106
 20
4819.211907269018
 30
0.0
 40
40.0
  1
2000
 41
0.7
100
AcDbText
  0
LINE
  5
4A9
330
21
100
AcDbEntity
  8
0
  6
ByBlock
 62
     0
370
    -2
100
AcDbLine
 10
6315.826764330439
 20
3872.800677269017
 30
0.0
 11
6315.826764330439
 21
3842.800677269017
 31
0.0
  0
LINE
  5
4AA
330
21
100
AcDbEntity
  8
0
  6
ByBlock
 62
     0
370
    -2
100
AcDbLine
 10
6320.826764330439
 20
3842.800677269017
 30
0.0
 11
6315.826764330439
 21
3872.800677269017
 31
0.0
  0
LINE
  5
4AB
330
21
100
AcDbEntity
  8
0
  6
ByBlock
 62
     0
370
    -2
100
AcDbLine
 10
6310.826764330439
 20
3842.800677269017
 30
0.0
 11
6315.826764330439
 21
3872.800677269017
 31
0.0
  0
LINE
  5
4AC
330
21
100
AcDbEntity
  8
0
  6
ByBlock
 62
     0
370
    -2
100
AcDbLine
 10
6315.826764330439
 20
3472.800677269017
 30
0.0
 11
6315.826764330439
 21
3502.800677269017
 31
0.0
  0
LINE
  5
4AD
330
21
100
AcDbEntity
  8
0
  6
ByBlock
 62
     0
370
    -2
100
AcDbLine
 10
6310.826764330439
 20
3502.800677269017
 30
0.0
 11
6315.826764330439
 21
3472.800677269017
 31
0.0
  0
LINE
  5
4AE
330
21
100
AcDbEntity
  8
0
  6
ByBlock
 62
     0
370
    -2
100
AcDbLine
 10
6320.826764330439
 20
3502.800677269017
 30
0.0
 11
6315.826764330439
 21
3472.800677269017
 31
0.0
  0
TEXT
  5
4AF
330
21
100
AcDbEntity
  8
1
 62
     7
100
AcDbText
 10
6368.326764330436
 20
3636.800677269017
 30
0.0
 40
40.0
  1
400
 50
90.0
 41
0.7
100
AcDbText
  0
LINE
  5
4B0
330
21
100
AcDbEntity
  8
0
  6
ByBlock
 62
     0
370
    -2
100
AcDbLine
 10
6315.826764330439
 20
4272.800677269017
 30
0.0
 11
6315.826764330439
 21
4242.800677269016
 31
0.0
  0
LINE
  5
4B1
330
21
100
AcDbEntity
  8
0
  6
ByBlock
 62
     0
370
    -2
100
AcDbLine
 10
6320.826764330439
 20
4242.800677269016
 30
0.0
 11
6315.826764330439
 21
4272.800677269017
 31
0.0
  0
LINE
  5
4B2
330
21
100
AcDbEntity
  8
0
  6
ByBlock
 62
     0
370
    -2
100
AcDbLine
 10
6310.826764330439
 20
4242.800677269016
 30
0.0
 11
6315.826764330439
 21
4272.800677269017
 31
0.0
  0
LINE
  5
4B3
330
21
100
AcDbEntity
  8
0
  6
ByBlock
 62
     0
370
    -2
100
AcDbLine
 10
6315.826764330439
 20
3872.800677269017
 30
0.0
 11
6315.826764330439
 21
3902.800677269017
 31
0.0
  0
LINE
  5
4B4
330
21
100
AcDbEntity
  8
0
  6
ByBlock
 62
     0
370
    -2
100
AcDbLine
 10
6310.826764330439
 20
3902.800677269017
 30
0.0
 11
6315.826764330439
 21
3872.800677269017
 31
0.0
  0
LINE
  5
4B5
330
21
100
AcDbEntity
  8
0
  6
ByBlock
 62
     0
370
    -2
100
AcDbLine
 10
6320.826764330439
 20
3902.800677269017
 30
0.0
 11
6315.826764330439
 21
3872.800677269017
 31
0.0
  0
TEXT
  5
4B6
330
21
100
AcDbEntity
  8
1
 62
     7
100
AcDbText
 10
6368.326764330436
 20
4036.800677269017
 30
0.0
 40
40.0
  1
400
 50
90.0
 41
0.7
100
AcDbText
  0
LINE
  5
4B7
330
21
100
AcDbEntity
  8
0
  6
ByBlock
 62
     0
370
    -2
100
AcDbLine
 10
6596.336059330439
 20
4272.800677269017
 30
0.0
 11
6596.336059330439
 21
4242.800677269016
 31
0.0
  0
LINE
  5
4B8
330
21
100
AcDbEntity
  8
0
  6
ByBlock
 62
     0
370
    -2
100
AcDbLine
 10
6601.336059330439
 20
4242.800677269016
 30
0.0
 11
6596.336059330439
 21
4272.800677269017
 31
0.0
  0
LINE
  5
4B9
330
21
100
AcDbEntity
  8
0
  6
ByBlock
 62
     0
370
    -2
100
AcDbLine
 10
6591.336059330439
 20
4242.800677269016
 30
0.0
 11
6596.336059330439
 21
4272.800677269017
 31
0.0
  0
LINE
  5
4BA
330
21
100
AcDbEntity
  8
0
  6
ByBlock
 62
     0
370
    -2
100
AcDbLine
 10
6596.336059330439
 20
3472.800677269017
 30
0.0
 11
6596.336059330439
 21
3502.800677269017
 31
0.0
  0
LINE
  5
4BB
330
21
100
AcDbEntity
  8
0
  6
ByBlock
 62
     0
370
    -2
100
AcDbLine
 10
6591.336059330439
 20
3502.800677269017
 30
0.0
 11
6596.336059330439
 21
3472.800677269017
 31
0.0
  0
LINE
  5
4BC
330
21
100
AcDbEntity
  8
0
  6
ByBlock
 62
     0
370
    -2
100
AcDbLine
 10
6601.336059330439
 20
3502.800677269017
 30
0.0
 11
6596.336059330439
 21
3472.800677269017
 31
0.0
  0
TEXT
  5
4BD
330
21
100
AcDbEntity
  8
1
 62
     7
100
AcDbText
 10
6648.836059330436
 20
3836.800677269017
 30
0.0
 40
40.0
  1
800
 50
90.0
 41
0.7
100
AcDbText
  0
TEXT
  5
4BE
330
21
100
AcDbEntity
  8
1
 62
     7
100
AcDbText
 10
6024.478856964622
 20
3599.567441120126
 30
0.0
 40
40.0
  1
100
 41
0.7
100
AcDbText
  0
LINE
  5
4BF
330
21
100
AcDbEntity
  8
0
  6
ByBlock
 62
     0
370
    -2
100
AcDbLine
 10
6009.304235330439
 20
3687.183465269016
 30
0.0
 11
5979.304235330439
 21
3687.183465269016
 31
0.0
  0
LINE
  5
4C0
330
21
100
AcDbEntity
  8
0
  6
ByBlock
 62
     0
370
    -2
100
AcDbLine
 10
5979.304235330439
 20
3682.183465269016
 30
0.0
 11
6009.304235330439
 21
3687.183465269016
 31
0.0
  0
LINE
  5
4C1
330
21
100
AcDbEntity
  8
0
  6
ByBlock
 62
     0
370
    -2
100
AcDbLine
 10
5979.304235330439
 20
3692.183465269016
 30
0.0
 11
6009.304235330439
 21
3687.183465269016
 31
0.0
  0
LINE
  5
4C2
330
21
100
AcDbEntity
  8
0
  6
ByBlock
 62
     0
370
    -2
100
AcDbLine
 10
5909.444412330438
 20
3687.183465269016
 30
0.0
 11
5939.444412330438
 21
3687.183465269016
 31
0.0
  0
LINE
  5
4C3
330
21
100
AcDbEntity
  8
0
  6
ByBlock
 62
     0
370
    -2
100
AcDbLine
 10
5939.444412330438
 20
3692.183465269016
 30
0.0
 11
5909.444412330438
 21
3687.183465269016
 31
0.0
  0
LINE
  5
4C4
330
21
100
AcDbEntity
  8
0
  6
ByBlock
 62
     0
370
    -2
100
AcDbLine
 10
5939.444412330438
 20
3682.183465269016
 30
0.0
 11
5909.444412330438
 21
3687.183465269016
 31
0.0
  0
TEXT
  5
4C5
330
21
100
AcDbEntity
  8
1
 62
     7
100
AcDbText
 10
3934.179781560115
 20
3634.897751131445
 30
0.0
 40
40.0
  1
25
 41
0.7
100
AcDbText
  0
LINE
  5
4C6
330
21
100
AcDbEntity
  8
0
  6
ByBlock
 62
     0
370
    -2
100
AcDbLine
 10
4009.450663330439
 20
3696.171620269018
 30
0.0
 11
3979.450663330439
 21
3696.171620269018
 31
0.0
  0
LINE
  5
4C7
330
21
100
AcDbEntity
  8
0
  6
ByBlock
 62
     0
370
    -2
100
AcDbLine
 10
3979.450663330439
 20
3691.171620269019
 30
0.0
 11
4009.450663330439
 21
3696.171620269018
 31
0.0
  0
LINE
  5
4C8
330
21
100
AcDbEntity
  8
0
  6
ByBlock
 62
     0
370
    -2
100
AcDbLine
 10
3979.450663330439
 20
3701.171620269019
 30
0.0
 11
4009.450663330439
 21
3696.171620269018
 31
0.0
  0
LINE
  5
4C9
330
21
100
AcDbEntity
  8
0
  6
ByBlock
 62
     0
370
    -2
100
AcDbLine
 10
4034.444412330438
 20
3696.171620269018
 30
0.0
 11
4064.444412330438
 21
3696.171620269018
 31
0.0
  0
LINE
  5
4CA
330
21
100
AcDbEntity
  8
0
  6
ByBlock
 62
     0
370
    -2
100
AcDbLine
 10
4064.444412330438
 20
3701.171620269019
 30
0.0
 11
4034.444412330438
 21
3696.171620269018
 31
0.0
  0
LINE
  5
4CB
330
21
100
AcDbEntity
  8
0
  6
ByBlock
 62
     0
370
    -2
100
AcDbLine
 10
4064.444412330438
 20
3691.171620269019
 30
0.0
 11
4034.444412330438
 21
3696.171620269018
 31
0.0
  0
LINE
  5
4CC
330
21
100
AcDbEntity
  8
0
  6
ByBlock
 62
     0
370
    -2
100
AcDbLine
 10
4109.444412330439
 20
3342.337372269018
 30
0.0
 11
4079.444412330438
 21
3342.337372269018
 31
0.0
  0
LINE
  5
4CD
330
21
100
AcDbEntity
  8
0
  6
ByBlock
 62
     0
370
    -2
100
AcDbLine
 10
4079.444412330438
 20
3337.337372269018
 30
0.0
 11
4109.444412330439
 21
3342.337372269018
 31
0.0
  0
LINE
  5
4CE
330
21
100
AcDbEntity
  8
0
  6
ByBlock
 62
     0
370
    -2
100
AcDbLine
 10
4079.444412330438
 20
3347.337372269018
 30
0.0
 11
4109.444412330439
 21
3342.337372269018
 31
0.0
  0
LINE
  5
4CF
330
21
100
AcDbEntity
  8
0
  6
ByBlock
 62
     0
370
    -2
100
AcDbLine
 10
4189.444412330438
 20
3342.337372269018
 30
0.0
 11
4219.444412330438
 21
3342.337372269018
 31
0.0
  0
LINE
  5
4D0
330
21
100
AcDbEntity
  8
0
  6
ByBlock
 62
     0
370
    -2
100
AcDbLine
 10
4219.444412330438
 20
3347.337372269018
 30
0.0
 11
4189.444412330438
 21
3342.337372269018
 31
0.0
  0
LINE
  5
4D1
330
21
100
AcDbEntity
  8
0
  6
ByBlock
 62
     0
370
    -2
100
AcDbLine
 10
4219.444412330438
 20
3337.337372269018
 30
0.0
 11
4189.444412330438
 21
3342.337372269018
 31
0.0
  0
TEXT
  5
4D2
330
21
100
AcDbEntity
  8
1
 62
     7
100
AcDbText
 10
4126.777745663772
 20
3289.837372269018
 30
0.0
 40
40.0
  1
80
 41
0.7
100
AcDbText
  0
LINE
  5
4D3
330
21
100
AcDbEntity
  8
0
  6
ByBlock
 62
     0
370
    -2
100
AcDbLine
 10
4046.944412330439
 20
3049.60138440071
 30
0.0
 11
4076.944412330438
 21
3049.60138440071
 31
0.0
  0
LINE
  5
4D4
330
21
100
AcDbEntity
  8
0
  6
ByBlock
 62
     0
370
    -2
100
AcDbLine
 10
4076.944412330438
 20
3054.60138440071
 30
0.0
 11
4046.944412330439
 21
3049.60138440071
 31
0.0
  0
LINE
  5
4D5
330
21
100
AcDbEntity
  8
0
  6
ByBlock
 62
     0
370
    -2
100
AcDbLine
 10
4076.944412330438
 20
3044.60138440071
 30
0.0
 11
4046.944412330439
 21
3049.60138440071
 31
0.0
  0
LINE
  5
4D6
330
21
100
AcDbEntity
  8
0
  6
ByBlock
 62
     0
370
    -2
100
AcDbLine
 10
5971.944412330438
 20
3049.60138440071
 30
0.0
 11
5941.944412330439
 21
3049.60138440071
 31
0.0
  0
LINE
  5
4D7
330
21
100
AcDbEntity
  8
0
  6
ByBlock
 62
     0
370
    -2
100
AcDbLine
 10
5941.944412330439
 20
3044.60138440071
 30
0.0
 11
5971.944412330438
 21
3049.60138440071
 31
0.0
  0
LINE
  5
4D8
330
21
100
AcDbEntity
  8
0
  6
ByBlock
 62
     0
370
    -2
100
AcDbLine
 10
5941.944412330439
 20
3054.60138440071
 30
0.0
 11
5971.944412330438
 21
3049.60138440071
 31
0.0
  0
TEXT
  5
4D9
330
21
100
AcDbEntity
  8
1
 62
     7
100
AcDbText
 10
4962.777745663771
 20
2997.101384400711
 30
0.0
 40
40.0
  1
1925
 41
0.7
100
AcDbText
  0
LINE
  5
4DA
330
21
100
AcDbEntity
  8
0
  6
ByBlock
 62
     0
370
    -2
100
AcDbLine
 10
3729.13689133044
 20
3952.800677269017
 30
0.0
 11
3729.13689133044
 21
3982.800677269017
 31
0.0
  0
LINE
  5
4DB
330
21
100
AcDbEntity
  8
0
  6
ByBlock
 62
     0
370
    -2
100
AcDbLine
 10
3724.13689133044
 20
3982.800677269017
 30
0.0
 11
3729.13689133044
 21
3952.800677269017
 31
0.0
  0
LINE
  5
4DC
330
21
100
AcDbEntity
  8
0
  6
ByBlock
 62
     0
370
    -2
100
AcDbLine
 10
3734.13689133044
 20
3982.800677269017
 30
0.0
 11
3729.13689133044
 21
3952.800677269017
 31
0.0
  0
LINE
  5
4DD
330
21
100
AcDbEntity
  8
0
  6
ByBlock
 62
     0
370
    -2
100
AcDbLine
 10
3729.13689133044
 20
3872.800677269017
 30
0.0
 11
3729.13689133044
 21
3842.800677269017
 31
0.0
  0
LINE
  5
4DE
330
21
100
AcDbEntity
  8
0
  6
ByBlock
 62
     0
370
    -2
100
AcDbLine
 10
3734.13689133044
 20
3842.800677269017
 30
0.0
 11
3729.13689133044
 21
3872.800677269017
 31
0.0
  0
LINE
  5
4DF
330
21
100
AcDbEntity
  8
0
  6
ByBlock
 62
     0
370
    -2
100
AcDbLine
 10
3724.13689133044
 20
3842.800677269017
 30
0.0
 11
3729.13689133044
 21
3872.800677269017
 31
0.0
  0
TEXT
  5
4E0
330
21
100
AcDbEntity
  8
1
 62
     7
100
AcDbText
 10
3716.636891330437
 20
3890.134010602349
 30
0.0
 40
40.0
  1
80
 50
90.0
 41
0.7
100
AcDbText
  0
LINE
  5
4E1
330
21
100
AcDbEntity
  8
0
  6
ByBlock
 62
     0
370
    -2
100
AcDbLine
 10
3729.13689133044
 20
4272.800677269017
 30
0.0
 11
3729.13689133044
 21
4242.800677269016
 31
0.0
  0
LINE
  5
4E2
330
21
100
AcDbEntity
  8
0
  6
ByBlock
 62
     0
370
    -2
100
AcDbLine
 10
3734.13689133044
 20
4242.800677269016
 30
0.0
 11
3729.13689133044
 21
4272.800677269017
 31
0.0
  0
LINE
  5
4E3
330
21
100
AcDbEntity
  8
0
  6
ByBlock
 62
     0
370
    -2
100
AcDbLine
 10
3724.13689133044
 20
4242.800677269016
 30
0.0
 11
3729.13689133044
 21
4272.800677269017
 31
0.0
  0
LINE
  5
4E4
330
21
100
AcDbEntity
  8
0
  6
ByBlock
 62
     0
370
    -2
100
AcDbLine
 10
3729.13689133044
 20
3952.800677269017
 30
0.0
 11
3729.13689133044
 21
3982.800677269017
 31
0.0
  0
LINE
  5
4E5
330
21
100
AcDbEntity
  8
0
  6
ByBlock
 62
     0
370
    -2
100
AcDbLine
 10
3724.13689133044
 20
3982.800677269017
 30
0.0
 11
3729.13689133044
 21
3952.800677269017
 31
0.0
  0
LINE
  5
4E6
330
21
100
AcDbEntity
  8
0
  6
ByBlock
 62
     0
370
    -2
100
AcDbLine
 10
3734.13689133044
 20
3982.800677269017
 30
0.0
 11
3729.13689133044
 21
3952.800677269017
 31
0.0
  0
TEXT
  5
4E7
330
21
100
AcDbEntity
  8
1
 62
     7
100
AcDbText
 10
3716.636891330437
 20
4076.800677269017
 30
0.0
 40
40.0
  1
320
 50
90.0
 41
0.7
100
AcDbText
  0
LINE
  5
4E8
330
21
100
AcDbEntity
  8
0
  6
ByBlock
 62
     0
370
    -2
100
AcDbLine
 10
3574.444412330438
 20
4272.800677269017
 30
0.0
 11
3574.444412330438
 21
4242.800677269016
 31
0.0
  0
LINE
  5
4E9
330
21
100
AcDbEntity
  8
0
  6
ByBlock
 62
     0
370
    -2
100
AcDbLine
 10
3579.444412330439
 20
4242.800677269016
 30
0.0
 11
3574.444412330438
 21
4272.800677269017
 31
0.0
  0
LINE
  5
4EA
330
21
100
AcDbEntity
  8
0
  6
ByBlock
 62
     0
370
    -2
100
AcDbLine
 10
3569.444412330439
 20
4242.800677269016
 30
0.0
 11
3574.444412330438
 21
4272.800677269017
 31
0.0
  0
LINE
  5
4EB
330
21
100
AcDbEntity
  8
0
  6
ByBlock
 62
     0
370
    -2
100
AcDbLine
 10
3574.444412330438
 20
3472.800677269017
 30
0.0
 11
3574.444412330438
 21
3502.800677269017
 31
0.0
  0
LINE
  5
4EC
330
21
100
AcDbEntity
  8
0
  6
ByBlock
 62
     0
370
    -2
100
AcDbLine
 10
3569.444412330439
 20
3502.800677269017
 30
0.0
 11
3574.444412330438
 21
3472.800677269017
 31
0.0
  0
LINE
  5
4ED
330
21
100
AcDbEntity
  8
0
  6
ByBlock
 62
     0
370
    -2
100
AcDbLine
 10
3579.444412330439
 20
3502.800677269017
 30
0.0
 11
3574.444412330438
 21
3472.800677269017
 31
0.0
  0
TEXT
  5
4EE
330
21
100
AcDbEntity
  8
1
 62
     7
100
AcDbText
 10
3561.944412330436
 20
3836.800677269017
 30
0.0
 40
40.0
  1
800
 50
90.0
 41
0.7
100
AcDbText
  0
LINE
  5
4EF
330
21
100
AcDbEntity
  8
0
  6
ByBlock
 62
     0
370
    -2
100
AcDbLine
 10
2054.745616330438
 20
3894.662970269019
 30
0.0
 11
2084.745616330438
 21
3894.662970269019
 31
0.0
  0
LINE
  5
4F0
330
21
100
AcDbEntity
  8
0
  6
ByBlock
 62
     0
370
    -2
100
AcDbLine
 10
2084.745616330438
 20
3899.662970269019
 30
0.0
 11
2054.745616330438
 21
3894.662970269019
 31
0.0
  0
LINE
  5
4F1
330
21
100
AcDbEntity
  8
0
  6
ByBlock
 62
     0
370
    -2
100
AcDbLine
 10
2084.745616330438
 20
3889.662970269019
 30
0.0
 11
2054.745616330438
 21
3894.662970269019
 31
0.0
  0
LINE
  5
4F2
330
21
100
AcDbEntity
  8
0
  6
ByBlock
 62
     0
370
    -2
100
AcDbLine
 10
1974.745616330437
 20
3894.662970269019
 30
0.0
 11
1944.745616330438
 21
3894.662970269019
 31
0.0
  0
LINE
  5
4F3
330
21
100
AcDbEntity
  8
0
  6
ByBlock
 62
     0
370
    -2
100
AcDbLine
 10
1944.745616330438
 20
3889.662970269019
 30
0.0
 11
1974.745616330437
 21
3894.662970269019
 31
0.0
  0
LINE
  5
4F4
330
21
100
AcDbEntity
  8
0
  6
ByBlock
 62
     0
370
    -2
100
AcDbLine
 10
1944.745616330438
 20
3899.662970269019
 30
0.0
 11
1974.745616330437
 21
3894.662970269019
 31
0.0
  0
TEXT
  5
4F5
330
21
100
AcDbEntity
  8
1
 62
     7
100
AcDbText
 10
1992.078949663771
 20
3907.162970269019
 30
0.0
 40
40.0
  1
80
 41
0.7
100
AcDbText
  0
LINE
  5
4F6
330
21
100
AcDbEntity
  8
0
  6
ByBlock
 62
     0
370
    -2
100
AcDbLine
 10
1654.745616330438
 20
3894.662970269019
 30
0.0
 11
1684.745616330438
 21
3894.662970269019
 31
0.0
  0
LINE
  5
4F7
330
21
100
AcDbEntity
  8
0
  6
ByBlock
 62
     0
370
    -2
100
AcDbLine
 10
1684.745616330438
 20
3899.662970269019
 30
0.0
 11
1654.745616330438
 21
3894.662970269019
 31
0.0
  0
LINE
  5
4F8
330
21
100
AcDbEntity
  8
0
  6
ByBlock
 62
     0
370
    -2
100
AcDbLine
 10
1684.745616330438
 20
3889.662970269019
 30
0.0
 11
1654.745616330438
 21
3894.662970269019
 31
0.0
  0
LINE
  5
4F9
330
21
100
AcDbEntity
  8
0
  6
ByBlock
 62
     0
370
    -2
100
AcDbLine
 10
1974.745616330437
 20
3894.662970269019
 30
0.0
 11
1944.745616330438
 21
3894.662970269019
 31
0.0
  0
LINE
  5
4FA
330
21
100
AcDbEntity
  8
0
  6
ByBlock
 62
     0
370
    -2
100
AcDbLine
 10
1944.745616330438
 20
3889.662970269019
 30
0.0
 11
1974.745616330437
 21
3894.662970269019
 31
0.0
  0
LINE
  5
4FB
330
21
100
AcDbEntity
  8
0
  6
ByBlock
 62
     0
370
    -2
100
AcDbLine
 10
1944.745616330438
 20
3899.662970269019
 30
0.0
 11
1974.745616330437
 21
3894.662970269019
 31
0.0
  0
TEXT
  5
4FC
330
21
100
AcDbEntity
  8
1
 62
     7
100
AcDbText
 10
1778.745616330438
 20
3907.162970269019
 30
0.0
 40
40.0
  1
320
 41
0.7
100
AcDbText
  0
LINE
  5
4FD
330
21
100
AcDbEntity
  8
0
  6
ByBlock
 62
     0
370
    -2
100
AcDbLine
 10
1514.135009330439
 20
3252.800677269017
 30
0.0
 11
1514.135009330439
 21
3282.800677269017
 31
0.0
  0
LINE
  5
4FE
330
21
100
AcDbEntity
  8
0
  6
ByBlock
 62
     0
370
    -2
100
AcDbLine
 10
1509.135009330439
 20
3282.800677269017
 30
0.0
 11
1514.135009330439
 21
3252.800677269017
 31
0.0
  0
LINE
  5
4FF
330
21
100
AcDbEntity
  8
0
  6
ByBlock
 62
     0
370
    -2
100
AcDbLine
 10
1519.135009330439
 20
3282.800677269017
 30
0.0
 11
1514.135009330439
 21
3252.800677269017
 31
0.0
  0
LINE
  5
500
330
21
100
AcDbEntity
  8
0
  6
ByBlock
 62
     0
370
    -2
100
AcDbLine
 10
1514.135009330439
 20
3172.800677269017
 30
0.0
 11
1514.135009330439
 21
3142.800677269017
 31
0.0
  0
LINE
  5
501
330
21
100
AcDbEntity
  8
0
  6
ByBlock
 62
     0
370
    -2
100
AcDbLine
 10
1519.135009330439
 20
3142.800677269017
 30
0.0
 11
1514.135009330439
 21
3172.800677269017
 31
0.0
  0
LINE
  5
502
330
21
100
AcDbEntity
  8
0
  6
ByBlock
 62
     0
370
    -2
100
AcDbLine
 10
1509.135009330439
 20
3142.800677269017
 30
0.0
 11
1514.135009330439
 21
3172.800677269017
 31
0.0
  0
TEXT
  5
503
330
21
100
AcDbEntity
  8
1
 62
     7
100
AcDbText
 10
1501.635009330436
 20
3190.134010602351
 30
0.0
 40
40.0
  1
80
 50
90.0
 41
0.7
100
AcDbText
  0
LINE
  5
504
330
21
100
AcDbEntity
  8
0
  6
ByBlock
 62
     0
370
    -2
100
AcDbLine
 10
1286.424165330438
 20
3652.80067726902
 30
0.0
 11
1286.424165330438
 21
3622.800677269021
 31
0.0
  0
LINE
  5
505
330
21
100
AcDbEntity
  8
0
  6
ByBlock
 62
     0
370
    -2
100
AcDbLine
 10
1291.424165330438
 20
3622.800677269021
 30
0.0
 11
1286.424165330438
 21
3652.80067726902
 31
0.0
  0
LINE
  5
506
330
21
100
AcDbEntity
  8
0
  6
ByBlock
 62
     0
370
    -2
100
AcDbLine
 10
1281.424165330438
 20
3622.800677269021
 30
0.0
 11
1286.424165330438
 21
3652.80067726902
 31
0.0
  0
LINE
  5
507
330
21
100
AcDbEntity
  8
0
  6
ByBlock
 62
     0
370
    -2
100
AcDbLine
 10
1286.424165330438
 20
3172.800677269017
 30
0.0
 11
1286.424165330438
 21
3202.800677269017
 31
0.0
  0
LINE
  5
508
330
21
100
AcDbEntity
  8
0
  6
ByBlock
 62
     0
370
    -2
100
AcDbLine
 10
1281.424165330438
 20
3202.800677269017
 30
0.0
 11
1286.424165330438
 21
3172.800677269017
 31
0.0
  0
LINE
  5
509
330
21
100
AcDbEntity
  8
0
  6
ByBlock
 62
     0
370
    -2
100
AcDbLine
 10
1291.424165330438
 20
3202.800677269017
 30
0.0
 11
1286.424165330438
 21
3172.800677269017
 31
0.0
  0
TEXT
  5
50A
330
21
100
AcDbEntity
  8
1
 62
     7
100
AcDbText
 10
1273.924165330435
 20
3376.800677269019
 30
0.0
 40
40.0
  1
480
 50
90.0
 41
0.7
100
AcDbText
  0
LINE
  5
50B
330
21
100
AcDbEntity
  8
0
  6
ByBlock
 62
     0
370
    -2
100
AcDbLine
 10
5155.182802330439
 20
4272.800677269017
 30
0.0
 11
5155.182802330439
 21
4242.800677269016
 31
0.0
  0
LINE
  5
50C
330
21
100
AcDbEntity
  8
0
  6
ByBlock
 62
     0
370
    -2
100
AcDbLine
 10
5160.182802330439
 20
4242.800677269016
 30
0.0
 11
5155.182802330439
 21
4272.800677269017
 31
0.0
  0
LINE
  5
50D
330
21
100
AcDbEntity
  8
0
  6
ByBlock
 62
     0
370
    -2
100
AcDbLine
 10
5150.182802330439
 20
4242.800677269016
 30
0.0
 11
5155.182802330439
 21
4272.800677269017
 31
0.0
  0
LINE
  5
50E
330
21
100
AcDbEntity
  8
0
  6
ByBlock
 62
     0
370
    -2
100
AcDbLine
 10
5155.182802330439
 20
4027.800677269016
 30
0.0
 11
5155.182802330439
 21
4057.800677269017
 31
0.0
  0
LINE
  5
50F
330
21
100
AcDbEntity
  8
0
  6
ByBlock
 62
     0
370
    -2
100
AcDbLine
 10
5150.182802330439
 20
4057.800677269017
 30
0.0
 11
5155.182802330439
 21
4027.800677269016
 31
0.0
  0
LINE
  5
510
330
21
100
AcDbEntity
  8
0
  6
ByBlock
 62
     0
370
    -2
100
AcDbLine
 10
5160.182802330439
 20
4057.800677269017
 30
0.0
 11
5155.182802330439
 21
4027.800677269016
 31
0.0
  0
TEXT
  5
511
330
21
100
AcDbEntity
  8
1
 62
     7
100
AcDbText
 10
5207.682802330436
 20
4114.300677269016
 30
0.0
 40
40.0
  1
245
 50
90.0
 41
0.7
100
AcDbText
  0
LINE
  5
512
330
21
100
AcDbEntity
  8
0
  6
ByBlock
 62
     0
370
    -2
100
AcDbLine
 10
4916.944412330439
 20
3669.955952627716
 30
0.0
 11
4946.944412330438
 21
3669.955952627716
 31
0.0
  0
LINE
  5
513
330
21
100
AcDbEntity
  8
0
  6
ByBlock
 62
     0
370
    -2
100
AcDbLine
 10
4946.944412330438
 20
3674.955952627716
 30
0.0
 11
4916.944412330439
 21
3669.955952627716
 31
0.0
  0
LINE
  5
514
330
21
100
AcDbEntity
  8
0
  6
ByBlock
 62
     0
370
    -2
100
AcDbLine
 10
4946.944412330438
 20
3664.955952627715
 30
0.0
 11
4916.944412330439
 21
3669.955952627716
 31
0.0
  0
LINE
  5
515
330
21
100
AcDbEntity
  8
0
  6
ByBlock
 62
     0
370
    -2
100
AcDbLine
 10
5101.944412330438
 20
3669.955952627716
 30
0.0
 11
5071.944412330438
 21
3669.955952627716
 31
0.0
  0
LINE
  5
516
330
21
100
AcDbEntity
  8
0
  6
ByBlock
 62
     0
370
    -2
100
AcDbLine
 10
5071.944412330438
 20
3664.955952627715
 30
0.0
 11
5101.944412330438
 21
3669.955952627716
 31
0.0
  0
LINE
  5
517
330
21
100
AcDbEntity
  8
0
  6
ByBlock
 62
     0
370
    -2
100
AcDbLine
 10
5071.944412330438
 20
3674.955952627716
 30
0.0
 11
5101.944412330438
 21
3669.955952627716
 31
0.0
  0
TEXT
  5
518
330
21
100
AcDbEntity
  8
1
 62
     7
100
AcDbText
 10
4962.111078997105
 20
3617.455952627716
 30
0.0
 40
40.0
  1
φ185
 41
0.7
100
AcDbText
  0
LINE
  5
519
330
21
100
AcDbEntity
  8
0
  6
ByBlock
 62
     0
370
    -2
100
AcDbLine
 10
4009.444412330438
 20
1074.999956563435
 30
0.0
 11
4039.444412330438
 21
1074.999956563435
 31
0.0
  0
LINE
  5
51A
330
21
100
AcDbEntity
  8
0
  6
ByBlock
 62
     0
370
    -2
100
AcDbLine
 10
4039.444412330438
 20
1079.999956563435
 30
0.0
 11
4009.444412330438
 21
1074.999956563435
 31
0.0
  0
LINE
  5
51B
330
21
100
AcDbEntity
  8
0
  6
ByBlock
 62
     0
370
    -2
100
AcDbLine
 10
4039.444412330438
 20
1069.999956563435
 30
0.0
 11
4009.444412330438
 21
1074.999956563435
 31
0.0
  0
LINE
  5
51C
330
21
100
AcDbEntity
  8
0
  6
ByBlock
 62
     0
370
    -2
100
AcDbLine
 10
6009.444412330438
 20
1074.999956563435
 30
0.0
 11
5979.444412330439
 21
1074.999956563435
 31
0.0
  0
LINE
  5
51D
330
21
100
AcDbEntity
  8
0
  6
ByBlock
 62
     0
370
    -2
100
AcDbLine
 10
5979.444412330439
 20
1069.999956563435
 30
0.0
 11
6009.444412330438
 21
1074.999956563435
 31
0.0
  0
LINE
  5
51E
330
21
100
AcDbEntity
  8
0
  6
ByBlock
 62
     0
370
    -2
100
AcDbLine
 10
5979.444412330439
 20
1079.999956563435
 30
0.0
 11
6009.444412330438
 21
1074.999956563435
 31
0.0
  0
TEXT
  5
51F
330
21
100
AcDbEntity
  8
1
 62
     7
100
AcDbText
 10
4960.111078997105
 20
1022.499956563435
 30
0.0
 40
40.0
  1
2000
 41
0.7
100
AcDbText
  0
LINE
  5
520
330
21
100
AcDbEntity
  8
0
  6
ByBlock
 62
     0
370
    -2
100
AcDbLine
 10
4046.944412330439
 20
1272.703486770449
 30
0.0
 11
4076.944412330438
 21
1272.703486770449
 31
0.0
  0
LINE
  5
521
330
21
100
AcDbEntity
  8
0
  6
ByBlock
 62
     0
370
    -2
100
AcDbLine
 10
4076.944412330438
 20
1277.703486770449
 30
0.0
 11
4046.944412330439
 21
1272.703486770449
 31
0.0
  0
LINE
  5
522
330
21
100
AcDbEntity
  8
0
  6
ByBlock
 62
     0
370
    -2
100
AcDbLine
 10
4076.944412330438
 20
1267.703486770449
 30
0.0
 11
4046.944412330439
 21
1272.703486770449
 31
0.0
  0
LINE
  5
523
330
21
100
AcDbEntity
  8
0
  6
ByBlock
 62
     0
370
    -2
100
AcDbLine
 10
5971.944412330437
 20
1272.703486770449
 30
0.0
 11
5941.944412330436
 21
1272.703486770449
 31
0.0
  0
LINE
  5
524
330
21
100
AcDbEntity
  8
0
  6
ByBlock
 62
     0
370
    -2
100
AcDbLine
 10
5941.944412330436
 20
1267.703486770449
 30
0.0
 11
5971.944412330437
 21
1272.703486770449
 31
0.0
  0
LINE
  5
525
330
21
100
AcDbEntity
  8
0
  6
ByBlock
 62
     0
370
    -2
100
AcDbLine
 10
5941.944412330436
 20
1277.703486770449
 30
0.0
 11
5971.944412330437
 21
1272.703486770449
 31
0.0
  0
TEXT
  5
526
330
21
100
AcDbEntity
  8
1
 62
     7
100
AcDbText
 10
4962.777745663771
 20
1220.20348677045
 30
0.0
 40
40.0
  1
1925
 41
0.7
100
AcDbText
  0
TEXT
  5
527
330
21
100
AcDbEntity
  8
1
 62
     7
100
AcDbText
 10
6416.624949476537
 20
1408.593872856652
 30
0.0
 40
40.0
  1
80
 50
90.0
 41
0.7
100
AcDbText
  0
LINE
  5
528
330
21
100
AcDbEntity
  8
0
  6
ByBlock
 62
     0
370
    -2
100
AcDbLine
 10
6333.852039465797
 20
1391.26053952332
 30
0.0
 11
6333.852039465797
 21
1361.26053952332
 31
0.0
  0
LINE
  5
529
330
21
100
AcDbEntity
  8
0
  6
ByBlock
 62
     0
370
    -2
100
AcDbLine
 10
6338.852039465797
 20
1361.26053952332
 30
0.0
 11
6333.852039465797
 21
1391.26053952332
 31
0.0
  0
LINE
  5
52A
330
21
100
AcDbEntity
  8
0
  6
ByBlock
 62
     0
370
    -2
100
AcDbLine
 10
6328.852039465797
 20
1361.26053952332
 30
0.0
 11
6333.852039465797
 21
1391.26053952332
 31
0.0
  0
LINE
  5
52B
330
21
100
AcDbEntity
  8
0
  6
ByBlock
 62
     0
370
    -2
100
AcDbLine
 10
6333.852039465797
 20
1471.26053952332
 30
0.0
 11
6333.852039465797
 21
1501.26053952332
 31
0.0
  0
LINE
  5
52C
330
21
100
AcDbEntity
  8
0
  6
ByBlock
 62
     0
370
    -2
100
AcDbLine
 10
6328.852039465797
 20
1501.26053952332
 30
0.0
 11
6333.852039465797
 21
1471.26053952332
 31
0.0
  0
LINE
  5
52D
330
21
100
AcDbEntity
  8
0
  6
ByBlock
 62
     0
370
    -2
100
AcDbLine
 10
6338.852039465797
 20
1501.26053952332
 30
0.0
 11
6333.852039465797
 21
1471.26053952332
 31
0.0
  0
LINE
  5
52E
330
21
100
AcDbEntity
  8
0
  6
ByBlock
 62
     0
370
    -2
100
AcDbLine
 10
6198.131787732694
 20
1471.26053952332
 30
0.0
 11
6198.131787732694
 21
1501.26053952332
 31
0.0
  0
LINE
  5
52F
330
21
100
AcDbEntity
  8
0
  6
ByBlock
 62
     0
370
    -2
100
AcDbLine
 10
6193.131787732694
 20
1501.26053952332
 30
0.0
 11
6198.131787732694
 21
1471.26053952332
 31
0.0
  0
LINE
  5
530
330
21
100
AcDbEntity
  8
0
  6
ByBlock
 62
     0
370
    -2
100
AcDbLine
 10
6203.131787732694
 20
1501.26053952332
 30
0.0
 11
6198.131787732694
 21
1471.26053952332
 31
0.0
  0
LINE
  5
531
330
21
100
AcDbEntity
  8
0
  6
ByBlock
 62
     0
370
    -2
100
AcDbLine
 10
6198.131787732695
 20
1671.260539523318
 30
0.0
 11
6198.131787732695
 21
1641.260539523318
 31
0.0
  0
LINE
  5
532
330
21
100
AcDbEntity
  8
0
  6
ByBlock
 62
     0
370
    -2
100
AcDbLine
 10
6203.131787732695
 20
1641.260539523318
 30
0.0
 11
6198.131787732695
 21
1671.260539523318
 31
0.0
  0
LINE
  5
533
330
21
100
AcDbEntity
  8
0
  6
ByBlock
 62
     0
370
    -2
100
AcDbLine
 10
6193.131787732695
 20
1641.260539523318
 30
0.0
 11
6198.131787732695
 21
1671.260539523318
 31
0.0
  0
TEXT
  5
534
330
21
100
AcDbEntity
  8
1
 62
     7
100
AcDbText
 10
6250.631787732692
 20
1535.260539523322
 30
0.0
 40
40.0
  1
200
 50
90.0
 41
0.7
100
AcDbText
  0
LINE
  5
535
330
21
100
AcDbEntity
  8
0
  6
ByBlock
 62
     0
370
    -2
100
AcDbLine
 10
6333.852039465796
 20
1471.26053952332
 30
0.0
 11
6333.852039465796
 21
1501.26053952332
 31
0.0
  0
LINE
  5
536
330
21
100
AcDbEntity
  8
0
  6
ByBlock
 62
     0
370
    -2
100
AcDbLine
 10
6328.852039465797
 20
1501.26053952332
 30
0.0
 11
6333.852039465796
 21
1471.26053952332
 31
0.0
  0
LINE
  5
537
330
21
100
AcDbEntity
  8
0
  6
ByBlock
 62
     0
370
    -2
100
AcDbLine
 10
6338.852039465797
 20
1501.26053952332
 30
0.0
 11
6333.852039465796
 21
1471.26053952332
 31
0.0
  0
LINE
  5
538
330
21
100
AcDbEntity
  8
0
  6
ByBlock
 62
     0
370
    -2
100
AcDbLine
 10
6333.852039465797
 20
1871.260539523322
 30
0.0
 11
6333.852039465797
 21
1841.260539523322
 31
0.0
  0
LINE
  5
539
330
21
100
AcDbEntity
  8
0
  6
ByBlock
 62
     0
370
    -2
100
AcDbLine
 10
6338.852039465797
 20
1841.260539523322
 30
0.0
 11
6333.852039465797
 21
1871.260539523322
 31
0.0
  0
LINE
  5
53A
330
21
100
AcDbEntity
  8
0
  6
ByBlock
 62
     0
370
    -2
100
AcDbLine
 10
6328.852039465797
 20
1841.260539523322
 30
0.0
 11
6333.852039465797
 21
1871.260539523322
 31
0.0
  0
TEXT
  5
53B
330
21
100
AcDbEntity
  8
1
 62
     7
100
AcDbText
 10
6386.352039465794
 20
1635.260539523322
 30
0.0
 40
40.0
  1
400
 50
90.0
 41
0.7
100
AcDbText
  0
LINE
  5
53C
330
21
100
AcDbEntity
  8
0
  6
ByBlock
 62
     0
370
    -2
100
AcDbLine
 10
6456.32443610169
 20
1391.26053952332
 30
0.0
 11
6456.32443610169
 21
1421.26053952332
 31
0.0
  0
LINE
  5
53D
330
21
100
AcDbEntity
  8
0
  6
ByBlock
 62
     0
370
    -2
100
AcDbLine
 10
6451.32443610169
 20
1421.26053952332
 30
0.0
 11
6456.32443610169
 21
1391.26053952332
 31
0.0
  0
LINE
  5
53E
330
21
100
AcDbEntity
  8
0
  6
ByBlock
 62
     0
370
    -2
100
AcDbLine
 10
6461.324436101691
 20
1421.26053952332
 30
0.0
 11
6456.32443610169
 21
1391.26053952332
 31
0.0
  0
LINE
  5
53F
330
21
100
AcDbEntity
  8
0
  6
ByBlock
 62
     0
370
    -2
100
AcDbLine
 10
6456.324436101692
 20
1871.260539523322
 30
0.0
 11
6456.324436101692
 21
1841.260539523322
 31
0.0
  0
LINE
  5
540
330
21
100
AcDbEntity
  8
0
  6
ByBlock
 62
     0
370
    -2
100
AcDbLine
 10
6461.324436101691
 20
1841.260539523322
 30
0.0
 11
6456.324436101692
 21
1871.260539523322
 31
0.0
  0
LINE
  5
541
330
21
100
AcDbEntity
  8
0
  6
ByBlock
 62
     0
370
    -2
100
AcDbLine
 10
6451.324436101692
 20
1841.260539523322
 30
0.0
 11
6456.324436101692
 21
1871.260539523322
 31
0.0
  0
TEXT
  5
542
330
21
100
AcDbEntity
  8
1
 62
     7
100
AcDbText
 10
6508.824436101689
 20
1595.260539523322
 30
0.0
 40
40.0
  1
480
 50
90.0
 41
0.7
100
AcDbText
  0
LINE
  5
543
330
21
100
AcDbEntity
  8
0
  6
ByBlock
 62
     0
370
    -2
100
AcDbLine
 10
1387.764594893331
 20
1074.999956563435
 30
0.0
 11
1417.764594893331
 21
1074.999956563435
 31
0.0
  0
LINE
  5
544
330
21
100
AcDbEntity
  8
0
  6
ByBlock
 62
     0
370
    -2
100
AcDbLine
 10
1417.764594893331
 20
1079.999956563435
 30
0.0
 11
1387.764594893331
 21
1074.999956563435
 31
0.0
  0
LINE
  5
545
330
21
100
AcDbEntity
  8
0
  6
ByBlock
 62
     0
370
    -2
100
AcDbLine
 10
1417.764594893331
 20
1069.999956563435
 30
0.0
 11
1387.764594893331
 21
1074.999956563435
 31
0.0
  0
LINE
  5
546
330
21
100
AcDbEntity
  8
0
  6
ByBlock
 62
     0
370
    -2
100
AcDbLine
 10
3387.764594893332
 20
1074.999956563435
 30
0.0
 11
3357.764594893332
 21
1074.999956563435
 31
0.0
  0
LINE
  5
547
330
21
100
AcDbEntity
  8
0
  6
ByBlock
 62
     0
370
    -2
100
AcDbLine
 10
3357.764594893332
 20
1069.999956563435
 30
0.0
 11
3387.764594893332
 21
1074.999956563435
 31
0.0
  0
LINE
  5
548
330
21
100
AcDbEntity
  8
0
  6
ByBlock
 62
     0
370
    -2
100
AcDbLine
 10
3357.764594893332
 20
1079.999956563435
 30
0.0
 11
3387.764594893332
 21
1074.999956563435
 31
0.0
  0
TEXT
  5
549
330
21
100
AcDbEntity
  8
1
 62
     7
100
AcDbText
 10
2338.431261559998
 20
1022.499956563435
 30
0.0
 40
40.0
  1
2000
 41
0.7
100
AcDbText
  0
LINE
  5
54A
330
21
100
AcDbEntity
  8
0
  6
ByBlock
 62
     0
370
    -2
100
AcDbLine
 10
1437.764594893331
 20
1276.538778009519
 30
0.0
 11
1467.764594893331
 21
1276.538778009519
 31
0.0
  0
LINE
  5
54B
330
21
100
AcDbEntity
  8
0
  6
ByBlock
 62
     0
370
    -2
100
AcDbLine
 10
1467.764594893331
 20
1281.538778009519
 30
0.0
 11
1437.764594893331
 21
1276.538778009519
 31
0.0
  0
LINE
  5
54C
330
21
100
AcDbEntity
  8
0
  6
ByBlock
 62
     0
370
    -2
100
AcDbLine
 10
1467.764594893331
 20
1271.538778009519
 30
0.0
 11
1437.764594893331
 21
1276.538778009519
 31
0.0
  0
LINE
  5
54D
330
21
100
AcDbEntity
  8
0
  6
ByBlock
 62
     0
370
    -2
100
AcDbLine
 10
3337.764594893331
 20
1276.538778009519
 30
0.0
 11
3307.764594893332
 21
1276.538778009519
 31
0.0
  0
LINE
  5
54E
330
21
100
AcDbEntity
  8
0
  6
ByBlock
 62
     0
370
    -2
100
AcDbLine
 10
3307.764594893332
 20
1271.538778009519
 30
0.0
 11
3337.764594893331
 21
1276.538778009519
 31
0.0
  0
LINE
  5
54F
330
21
100
AcDbEntity
  8
0
  6
ByBlock
 62
     0
370
    -2
100
AcDbLine
 10
3307.764594893332
 20
1281.538778009519
 30
0.0
 11
3337.764594893331
 21
1276.538778009519
 31
0.0
  0
TEXT
  5
550
330
21
100
AcDbEntity
  8
1
 62
     7
100
AcDbText
 10
2341.097928226665
 20
1224.038778009519
 30
0.0
 40
40.0
  1
1900
 41
0.7
100
AcDbText
  0
LINE
  5
551
330
21
100
AcDbEntity
  8
0
  6
ByBlock
 62
     0
370
    -2
100
AcDbLine
 10
1387.764594893331
 20
2049.304541352125
 30
0.0
 11
1417.764594893331
 21
2049.304541352125
 31
0.0
  0
LINE
  5
552
330
21
100
AcDbEntity
  8
0
  6
ByBlock
 62
     0
370
    -2
100
AcDbLine
 10
1417.764594893331
 20
2054.304541352125
 30
0.0
 11
1387.764594893331
 21
2049.304541352125
 31
0.0
  0
LINE
  5
553
330
21
100
AcDbEntity
  8
0
  6
ByBlock
 62
     0
370
    -2
100
AcDbLine
 10
1417.764594893331
 20
2044.304541352125
 30
0.0
 11
1387.764594893331
 21
2049.304541352125
 31
0.0
  0
LINE
  5
554
330
21
100
AcDbEntity
  8
0
  6
ByBlock
 62
     0
370
    -2
100
AcDbLine
 10
2187.764594893328
 20
2049.304541352125
 30
0.0
 11
2157.764594893328
 21
2049.304541352125
 31
0.0
  0
LINE
  5
555
330
21
100
AcDbEntity
  8
0
  6
ByBlock
 62
     0
370
    -2
100
AcDbLine
 10
2157.764594893328
 20
2044.304541352125
 30
0.0
 11
2187.764594893328
 21
2049.304541352125
 31
0.0
  0
LINE
  5
556
330
21
100
AcDbEntity
  8
0
  6
ByBlock
 62
     0
370
    -2
100
AcDbLine
 10
2157.764594893328
 20
2054.304541352125
 30
0.0
 11
2187.764594893328
 21
2049.304541352125
 31
0.0
  0
TEXT
  5
557
330
21
100
AcDbEntity
  8
1
 62
     7
100
AcDbText
 10
1751.764594893329
 20
2061.804541352125
 30
0.0
 40
40.0
  1
800
 41
0.7
100
AcDbText
  0
LINE
  5
558
330
21
100
AcDbEntity
  8
0
  6
ByBlock
 62
     0
370
    -2
100
AcDbLine
 10
2187.764594893328
 20
2049.304541352125
 30
0.0
 11
2217.764594893328
 21
2049.304541352125
 31
0.0
  0
LINE
  5
559
330
21
100
AcDbEntity
  8
0
  6
ByBlock
 62
     0
370
    -2
100
AcDbLine
 10
2217.764594893328
 20
2054.304541352125
 30
0.0
 11
2187.764594893328
 21
2049.304541352125
 31
0.0
  0
LINE
  5
55A
330
21
100
AcDbEntity
  8
0
  6
ByBlock
 62
     0
370
    -2
100
AcDbLine
 10
2217.764594893328
 20
2044.304541352125
 30
0.0
 11
2187.764594893328
 21
2049.304541352125
 31
0.0
  0
LINE
  5
55B
330
21
100
AcDbEntity
  8
0
  6
ByBlock
 62
     0
370
    -2
100
AcDbLine
 10
2587.764594893335
 20
2049.304541352125
 30
0.0
 11
2557.764594893335
 21
2049.304541352125
 31
0.0
  0
LINE
  5
55C
330
21
100
AcDbEntity
  8
0
  6
ByBlock
 62
     0
370
    -2
100
AcDbLine
 10
2557.764594893335
 20
2044.304541352125
 30
0.0
 11
2587.764594893335
 21
2049.304541352125
 31
0.0
  0
LINE
  5
55D
330
21
100
AcDbEntity
  8
0
  6
ByBlock
 62
     0
370
    -2
100
AcDbLine
 10
2557.764594893335
 20
2054.304541352125
 30
0.0
 11
2587.764594893335
 21
2049.304541352125
 31
0.0
  0
TEXT
  5
55E
330
21
100
AcDbEntity
  8
1
 62
     7
100
AcDbText
 10
2351.764594893332
 20
2061.804541352125
 30
0.0
 40
40.0
  1
400
 41
0.7
100
AcDbText
  0
LINE
  5
55F
330
21
100
AcDbEntity
  8
0
  6
ByBlock
 62
     0
370
    -2
100
AcDbLine
 10
2587.764594893335
 20
2049.304541352125
 30
0.0
 11
2617.764594893335
 21
2049.304541352125
 31
0.0
  0
LINE
  5
560
330
21
100
AcDbEntity
  8
0
  6
ByBlock
 62
     0
370
    -2
100
AcDbLine
 10
2617.764594893335
 20
2054.304541352125
 30
0.0
 11
2587.764594893335
 21
2049.304541352125
 31
0.0
  0
LINE
  5
561
330
21
100
AcDbEntity
  8
0
  6
ByBlock
 62
     0
370
    -2
100
AcDbLine
 10
2617.764594893335
 20
2044.304541352125
 30
0.0
 11
2587.764594893335
 21
2049.304541352125
 31
0.0
  0
LINE
  5
562
330
21
100
AcDbEntity
  8
0
  6
ByBlock
 62
     0
370
    -2
100
AcDbLine
 10
3387.764594893332
 20
2049.304541352125
 30
0.0
 11
3357.764594893332
 21
2049.304541352125
 31
0.0
  0
LINE
  5
563
330
21
100
AcDbEntity
  8
0
  6
ByBlock
 62
     0
370
    -2
100
AcDbLine
 10
3357.764594893332
 20
2044.304541352125
 30
0.0
 11
3387.764594893332
 21
2049.304541352125
 31
0.0
  0
LINE
  5
564
330
21
100
AcDbEntity
  8
0
  6
ByBlock
 62
     0
370
    -2
100
AcDbLine
 10
3357.764594893332
 20
2054.304541352125
 30
0.0
 11
3387.764594893332
 21
2049.304541352125
 31
0.0
  0
TEXT
  5
565
330
21
100
AcDbEntity
  8
1
 62
     7
100
AcDbText
 10
2951.764594893333
 20
2061.804541352125
 30
0.0
 40
40.0
  1
800
 41
0.7
100
AcDbText
  0
TEXT
  5
566
330
21
100
AcDbEntity
  8
1
 62
     7
100
AcDbText
 10
3645.13562231302
 20
1408.593872856652
 30
0.0
 40
40.0
  1
80
 50
90.0
 41
0.7
100
AcDbText
  0
LINE
  5
567
330
21
100
AcDbEntity
  8
0
  6
ByBlock
 62
     0
370
    -2
100
AcDbLine
 10
3556.295493463709
 20
1391.26053952332
 30
0.0
 11
3556.295493463709
 21
1361.26053952332
 31
0.0
  0
LINE
  5
568
330
21
100
AcDbEntity
  8
0
  6
ByBlock
 62
     0
370
    -2
100
AcDbLine
 10
3561.29549346371
 20
1361.26053952332
 30
0.0
 11
3556.295493463709
 21
1391.26053952332
 31
0.0
  0
LINE
  5
569
330
21
100
AcDbEntity
  8
0
  6
ByBlock
 62
     0
370
    -2
100
AcDbLine
 10
3551.295493463709
 20
1361.26053952332
 30
0.0
 11
3556.295493463709
 21
1391.26053952332
 31
0.0
  0
LINE
  5
56A
330
21
100
AcDbEntity
  8
0
  6
ByBlock
 62
     0
370
    -2
100
AcDbLine
 10
3556.295493463709
 20
1471.260539523322
 30
0.0
 11
3556.295493463709
 21
1501.260539523322
 31
0.0
  0
LINE
  5
56B
330
21
100
AcDbEntity
  8
0
  6
ByBlock
 62
     0
370
    -2
100
AcDbLine
 10
3551.295493463709
 20
1501.260539523322
 30
0.0
 11
3556.295493463709
 21
1471.260539523322
 31
0.0
  0
LINE
  5
56C
330
21
100
AcDbEntity
  8
0
  6
ByBlock
 62
     0
370
    -2
100
AcDbLine
 10
3561.29549346371
 20
1501.260539523322
 30
0.0
 11
3556.295493463709
 21
1471.260539523322
 31
0.0
  0
TEXT
  5
56D
330
21
100
AcDbEntity
  8
1
 62
     7
100
AcDbText
 10
3642.043006848173
 20
1898.029179809053
 30
0.0
 40
40.0
  1
40
 50
90.0
 41
0.7
100
AcDbText
  0
LINE
  5
56E
330
21
100
AcDbEntity
  8
0
  6
ByBlock
 62
     0
370
    -2
100
AcDbLine
 10
3556.295493463709
 20
1871.260539523322
 30
0.0
 11
3556.295493463709
 21
1901.260539523322
 31
0.0
  0
LINE
  5
56F
330
21
100
AcDbEntity
  8
0
  6
ByBlock
 62
     0
370
    -2
100
AcDbLine
 10
3551.295493463709
 20
1901.260539523322
 30
0.0
 11
3556.295493463709
 21
1871.260539523322
 31
0.0
  0
LINE
  5
570
330
21
100
AcDbEntity
  8
0
  6
ByBlock
 62
     0
370
    -2
100
AcDbLine
 10
3561.29549346371
 20
1901.260539523322
 30
0.0
 11
3556.295493463709
 21
1871.260539523322
 31
0.0
  0
LINE
  5
571
330
21
100
AcDbEntity
  8
0
  6
ByBlock
 62
     0
370
    -2
100
AcDbLine
 10
3556.295493463709
 20
1831.260539523322
 30
0.0
 11
3556.295493463709
 21
1801.260539523322
 31
0.0
  0
LINE
  5
572
330
21
100
AcDbEntity
  8
0
  6
ByBlock
 62
     0
370
    -2
100
AcDbLine
 10
3561.29549346371
 20
1801.260539523322
 30
0.0
 11
3556.295493463709
 21
1831.260539523322
 31
0.0
  0
LINE
  5
573
330
21
100
AcDbEntity
  8
0
  6
ByBlock
 62
     0
370
    -2
100
AcDbLine
 10
3551.295493463709
 20
1801.260539523322
 30
0.0
 11
3556.295493463709
 21
1831.260539523322
 31
0.0
  0
TEXT
  5
574
330
21
100
AcDbEntity
  8
1
 62
     7
100
AcDbText
 10
3641.644835883802
 20
1778.593872856654
 30
0.0
 40
40.0
  1
60
 50
90.0
 41
0.7
100
AcDbText
  0
LINE
  5
575
330
21
100
AcDbEntity
  8
0
  6
ByBlock
 62
     0
370
    -2
100
AcDbLine
 10
3556.295493463709
 20
1831.260539523322
 30
0.0
 11
3556.295493463709
 21
1861.260539523322
 31
0.0
  0
LINE
  5
576
330
21
100
AcDbEntity
  8
0
  6
ByBlock
 62
     0
370
    -2
100
AcDbLine
 10
3551.295493463709
 20
1861.260539523322
 30
0.0
 11
3556.295493463709
 21
1831.260539523322
 31
0.0
  0
LINE
  5
577
330
21
100
AcDbEntity
  8
0
  6
ByBlock
 62
     0
370
    -2
100
AcDbLine
 10
3561.29549346371
 20
1861.260539523322
 30
0.0
 11
3556.295493463709
 21
1831.260539523322
 31
0.0
  0
LINE
  5
578
330
21
100
AcDbEntity
  8
0
  6
ByBlock
 62
     0
370
    -2
100
AcDbLine
 10
3556.295493463709
 20
1771.260539523322
 30
0.0
 11
3556.295493463709
 21
1741.260539523322
 31
0.0
  0
LINE
  5
579
330
21
100
AcDbEntity
  8
0
  6
ByBlock
 62
     0
370
    -2
100
AcDbLine
 10
3561.29549346371
 20
1741.260539523322
 30
0.0
 11
3556.295493463709
 21
1771.260539523322
 31
0.0
  0
LINE
  5
57A
330
21
100
AcDbEntity
  8
0
  6
ByBlock
 62
     0
370
    -2
100
AcDbLine
 10
3551.295493463709
 20
1741.260539523322
 30
0.0
 11
3556.295493463709
 21
1771.260539523322
 31
0.0
  0
TEXT
  5
57B
330
21
100
AcDbEntity
  8
1
 62
     7
100
AcDbText
 10
1470.385009330436
 20
3560.134010602353
 30
0.0
 40
40.0
  1
60
 50
90.0
 41
0.7
100
AcDbText
  0
LINE
  5
57C
330
21
100
AcDbEntity
  8
0
  6
ByBlock
 62
     0
370
    -2
100
AcDbLine
 10
1514.135009330439
 20
3552.800677269021
 30
0.0
 11
1514.135009330439
 21
3522.800677269021
 31
0.0
  0
LINE
  5
57D
330
21
100
AcDbEntity
  8
0
  6
ByBlock
 62
     0
370
    -2
100
AcDbLine
 10
1519.135009330439
 20
3522.800677269021
 30
0.0
 11
1514.135009330439
 21
3552.800677269021
 31
0.0
  0
LINE
  5
57E
330
21
100
AcDbEntity
  8
0
  6
ByBlock
 62
     0
370
    -2
100
AcDbLine
 10
1509.135009330439
 20
3522.800677269021
 30
0.0
 11
1514.135009330439
 21
3552.800677269021
 31
0.0
  0
LINE
  5
57F
330
21
100
AcDbEntity
  8
0
  6
ByBlock
 62
     0
370
    -2
100
AcDbLine
 10
1514.135009330439
 20
3612.800677269021
 30
0.0
 11
1514.135009330439
 21
3642.800677269021
 31
0.0
  0
LINE
  5
580
330
21
100
AcDbEntity
  8
0
  6
ByBlock
 62
     0
370
    -2
100
AcDbLine
 10
1509.135009330439
 20
3642.800677269021
 30
0.0
 11
1514.135009330439
 21
3612.800677269021
 31
0.0
  0
LINE
  5
581
330
21
100
AcDbEntity
  8
0
  6
ByBlock
 62
     0
370
    -2
100
AcDbLine
 10
1519.135009330439
 20
3642.800677269021
 30
0.0
 11
1514.135009330439
 21
3612.800677269021
 31
0.0
  0
TEXT
  5
582
330
21
100
AcDbEntity
  8
1
 62
     7
100
AcDbText
 10
1470.385009330436
 20
3610.134010602353
 30
0.0
 40
40.0
  1
40
 50
90.0
 41
0.7
100
AcDbText
  0
LINE
  5
583
330
21
100
AcDbEntity
  8
0
  6
ByBlock
 62
     0
370
    -2
100
AcDbLine
 10
1514.135009330439
 20
3612.800677269021
 30
0.0
 11
1514.135009330439
 21
3582.800677269021
 31
0.0
  0
LINE
  5
584
330
21
100
AcDbEntity
  8
0
  6
ByBlock
 62
     0
370
    -2
100
AcDbLine
 10
1519.135009330439
 20
3582.800677269021
 30
0.0
 11
1514.135009330439
 21
3612.800677269021
 31
0.0
  0
LINE
  5
585
330
21
100
AcDbEntity
  8
0
  6
ByBlock
 62
     0
370
    -2
100
AcDbLine
 10
1509.135009330439
 20
3582.800677269021
 30
0.0
 11
1514.135009330439
 21
3612.800677269021
 31
0.0
  0
LINE
  5
586
330
21
100
AcDbEntity
  8
0
  6
ByBlock
 62
     0
370
    -2
100
AcDbLine
 10
1514.135009330439
 20
3652.80067726902
 30
0.0
 11
1514.135009330439
 21
3682.800677269021
 31
0.0
  0
LINE
  5
587
330
21
100
AcDbEntity
  8
0
  6
ByBlock
 62
     0
370
    -2
100
AcDbLine
 10
1509.135009330439
 20
3682.800677269021
 30
0.0
 11
1514.135009330439
 21
3652.80067726902
 31
0.0
  0
LINE
  5
588
330
21
100
AcDbEntity
  8
0
  6
ByBlock
 62
     0
370
    -2
100
AcDbLine
 10
1519.135009330439
 20
3682.800677269021
 30
0.0
 11
1514.135009330439
 21
3652.80067726902
 31
0.0
  0
LINE
  5
589
330
21
100
AcDbEntity
  8
1
  6
Continuous
 62
     7
370
    18
100
AcDbLine
 10
1514.135009330439
 20
3682.800677269021
 30
0.0
 11
1514.135009330439
 21
3712.800677269021
 31
0.0
  0
LINE
  5
58A
330
21
100
AcDbEntity
  8
1
  6
Continuous
 62
     7
370
    18
100
AcDbLine
 10
1514.135009330439
 20
3582.800677269021
 30
0.0
 11
1514.135009330439
 21
3552.800677269021
 31
0.0
  0
LINE
  5
58B
330
21
100
AcDbEntity
  8
1
  6
Continuous
 62
     7
370
    18
100
AcDbLine
 10
1584.745616330438
 20
3652.80067726902
 30
0.0
 11
1489.135009330439
 21
3652.80067726902
 31
0.0
  0
LINE
  5
58C
330
21
100
AcDbEntity
  8
1
  6
Continuous
 62
     7
370
    18
100
AcDbLine
 10
1574.745616330438
 20
3612.800677269021
 30
0.0
 11
1489.135009330439
 21
3612.800677269021
 31
0.0
  0
LINE
  5
58D
330
21
100
AcDbEntity
  8
1
  6
Continuous
 62
     7
370
    18
100
AcDbLine
 10
1514.135009330439
 20
3642.800677269021
 30
0.0
 11
1514.135009330439
 21
3672.800677269021
 31
0.0
  0
LINE
  5
58E
330
21
100
AcDbEntity
  8
1
  6
Continuous
 62
     7
370
    18
100
AcDbLine
 10
1514.135009330439
 20
3522.800677269021
 30
0.0
 11
1514.135009330439
 21
3492.80067726902
 31
0.0
  0
LINE
  5
58F
330
21
100
AcDbEntity
  8
1
  6
Continuous
 62
     7
370
    18
100
AcDbLine
 10
1574.745616330438
 20
3612.800677269021
 30
0.0
 11
1489.135009330439
 21
3612.800677269021
 31
0.0
  0
LINE
  5
590
330
21
100
AcDbEntity
  8
1
  6
Continuous
 62
     7
370
    18
100
AcDbLine
 10
1580.745616330438
 20
3552.800677269021
 30
0.0
 11
1489.135009330439
 21
3552.800677269021
 31
0.0
  0
LINE
  5
591
330
21
100
AcDbEntity
  8
1
  6
Continuous
 62
     7
370
    18
100
AcDbLine
 10
3556.295493463709
 20
1741.260539523322
 30
0.0
 11
3556.295493463709
 21
1711.260539523322
 31
0.0
  0
LINE
  5
592
330
21
100
AcDbEntity
  8
1
  6
Continuous
 62
     7
370
    18
100
AcDbLine
 10
3556.295493463709
 20
1861.260539523322
 30
0.0
 11
3556.295493463709
 21
1891.260539523322
 31
0.0
  0
LINE
  5
593
330
21
100
AcDbEntity
  8
1
  6
Continuous
 62
     7
370
    18
100
AcDbLine
 10
3442.764594893332
 20
1771.260539523322
 30
0.0
 11
3581.295493463709
 21
1771.260539523322
 31
0.0
  0
LINE
  5
594
330
21
100
AcDbEntity
  8
1
  6
Continuous
 62
     7
370
    18
100
AcDbLine
 10
3442.764594893332
 20
1831.260539523322
 30
0.0
 11
3581.295493463709
 21
1831.260539523322
 31
0.0
  0
LINE
  5
595
330
21
100
AcDbEntity
  8
1
  6
Continuous
 62
     7
370
    18
100
AcDbLine
 10
3556.295493463709
 20
1801.260539523322
 30
0.0
 11
3556.295493463709
 21
1771.260539523322
 31
0.0
  0
LINE
  5
596
330
21
100
AcDbEntity
  8
1
  6
Continuous
 62
     7
370
    18
100
AcDbLine
 10
3556.295493463709
 20
1901.260539523322
 30
0.0
 11
3556.295493463709
 21
1931.260539523322
 31
0.0
  0
LINE
  5
597
330
21
100
AcDbEntity
  8
1
  6
Continuous
 62
     7
370
    18
100
AcDbLine
 10
3442.764594893332
 20
1831.260539523322
 30
0.0
 11
3581.295493463709
 21
1831.260539523322
 31
0.0
  0
LINE
  5
598
330
21
100
AcDbEntity
  8
1
  6
Continuous
 62
     7
370
    18
100
AcDbLine
 10
3467.764594893332
 20
1871.260539523322
 30
0.0
 11
3581.295493463709
 21
1871.260539523322
 31
0.0
  0
LINE
  5
599
330
21
100
AcDbEntity
  8
1
  6
Continuous
 62
     7
370
    18
100
AcDbLine
 10
3556.295493463709
 20
1501.260539523322
 30
0.0
 11
3556.295493463709
 21
1531.260539523322
 31
0.0
  0
LINE
  5
59A
330
21
100
AcDbEntity
  8
1
  6
Continuous
 62
     7
370
    18
100
AcDbLine
 10
3556.295493463709
 20
1361.26053952332
 30
0.0
 11
3556.295493463709
 21
1331.26053952332
 31
0.0
  0
LINE
  5
59B
330
21
100
AcDbEntity
  8
1
  6
Continuous
 62
     7
370
    18
100
AcDbLine
 10
3442.764594893332
 20
1471.260539523322
 30
0.0
 11
3581.295493463709
 21
1471.260539523322
 31
0.0
  0
LINE
  5
59C
330
21
100
AcDbEntity
  8
1
  6
Continuous
 62
     7
370
    18
100
AcDbLine
 10
3467.764594893332
 20
1391.26053952332
 30
0.0
 11
3581.295493463709
 21
1391.26053952332
 31
0.0
  0
LINE
  5
59D
330
21
100
AcDbEntity
  8
1
  6
Continuous
 62
     7
370
    18
100
AcDbLine
 10
2617.764594893335
 20
2049.304541352125
 30
0.0
 11
3357.764594893332
 21
2049.304541352125
 31
0.0
  0
LINE
  5
59E
330
21
100
AcDbEntity
  8
1
  6
Continuous
 62
     7
370
    18
100
AcDbLine
 10
3387.764594893332
 20
1951.260539523322
 30
0.0
 11
3387.764594893332
 21
2074.304541352125
 31
0.0
  0
LINE
  5
59F
330
21
100
AcDbEntity
  8
1
  6
Continuous
 62
     7
370
    18
100
AcDbLine
 10
2587.764594893335
 20
1951.260539523322
 30
0.0
 11
2587.764594893335
 21
2074.304541352125
 31
0.0
  0
LINE
  5
5A0
330
21
100
AcDbEntity
  8
1
  6
Continuous
 62
     7
370
    18
100
AcDbLine
 10
2217.764594893328
 20
2049.304541352125
 30
0.0
 11
2557.764594893335
 21
2049.304541352125
 31
0.0
  0
LINE
  5
5A1
330
21
100
AcDbEntity
  8
1
  6
Continuous
 62
     7
370
    18
100
AcDbLine
 10
2587.764594893335
 20
1951.260539523322
 30
0.0
 11
2587.764594893335
 21
2074.304541352125
 31
0.0
  0
LINE
  5
5A2
330
21
100
AcDbEntity
  8
1
  6
Continuous
 62
     7
370
    18
100
AcDbLine
 10
2187.764594893328
 20
1951.260539523322
 30
0.0
 11
2187.764594893328
 21
2074.304541352125
 31
0.0
  0
LINE
  5
5A3
330
21
100
AcDbEntity
  8
1
  6
Continuous
 62
     7
370
    18
100
AcDbLine
 10
1417.764594893331
 20
2049.304541352125
 30
0.0
 11
2157.764594893328
 21
2049.304541352125
 31
0.0
  0
LINE
  5
5A4
330
21
100
AcDbEntity
  8
1
  6
Continuous
 62
     7
370
    18
100
AcDbLine
 10
2187.764594893328
 20
1951.260539523322
 30
0.0
 11
2187.764594893328
 21
2074.304541352125
 31
0.0
  0
LINE
  5
5A5
330
21
100
AcDbEntity
  8
1
  6
Continuous
 62
     7
370
    18
100
AcDbLine
 10
1387.764594893331
 20
1951.260539523322
 30
0.0
 11
1387.764594893331
 21
2074.304541352125
 31
0.0
  0
LINE
  5
5A6
330
21
100
AcDbEntity
  8
1
  6
Continuous
 62
     7
370
    18
100
AcDbLine
 10
1467.764594893331
 20
1276.538778009519
 30
0.0
 11
3307.764594893332
 21
1276.538778009519
 31
0.0
  0
LINE
  5
5A7
330
21
100
AcDbEntity
  8
1
  6
Continuous
 62
     7
370
    18
100
AcDbLine
 10
3337.764594893331
 20
1311.26053952332
 30
0.0
 11
3337.764594893331
 21
1251.538778009519
 31
0.0
  0
LINE
  5
5A8
330
21
100
AcDbEntity
  8
1
  6
Continuous
 62
     7
370
    18
100
AcDbLine
 10
1437.764594893331
 20
1311.26053952332
 30
0.0
 11
1437.764594893331
 21
1251.538778009519
 31
0.0
  0
LINE
  5
5A9
330
21
100
AcDbEntity
  8
1
  6
Continuous
 62
     7
370
    18
100
AcDbLine
 10
1417.764594893331
 20
1074.999956563435
 30
0.0
 11
3357.764594893332
 21
1074.999956563435
 31
0.0
  0
LINE
  5
5AA
330
21
100
AcDbEntity
  8
1
  6
Continuous
 62
     7
370
    18
100
AcDbLine
 10
3387.764594893332
 20
1311.26053952332
 30
0.0
 11
3387.764594893332
 21
1049.999956563435
 31
0.0
  0
LINE
  5
5AB
330
21
100
AcDbEntity
  8
1
  6
Continuous
 62
     7
370
    18
100
AcDbLine
 10
1387.764594893331
 20
1311.26053952332
 30
0.0
 11
1387.764594893331
 21
1049.999956563435
 31
0.0
  0
LINE
  5
5AC
330
21
100
AcDbEntity
  8
0
  6
ByBlock
 62
     0
370
    -2
100
AcDbLine
 10
4189.444412330438
 20
1760.406722994667
 30
0.0
 11
4229.444412330439
 21
1760.406722994667
 31
0.0
  0
LINE
  5
5AD
330
21
100
AcDbEntity
  8
0
  6
ByBlock
 62
     0
370
    -2
100
AcDbLine
 10
4229.444412330439
 20
1767.073389661333
 30
0.0
 11
4189.444412330438
 21
1760.406722994667
 31
0.0
  0
LINE
  5
5AE
330
21
100
AcDbEntity
  8
0
  6
ByBlock
 62
     0
370
    -2
100
AcDbLine
 10
4229.444412330439
 20
1753.740056328001
 30
0.0
 11
4189.444412330438
 21
1760.406722994667
 31
0.0
  0
LINE
  5
5AF
330
21
100
AcDbEntity
  8
0
  6
ByBlock
 62
     0
370
    -2
100
AcDbLine
 10
4109.444412330439
 20
1760.406722994667
 30
0.0
 11
4069.444412330438
 21
1760.406722994667
 31
0.0
  0
LINE
  5
5B0
330
21
100
AcDbEntity
  8
0
  6
ByBlock
 62
     0
370
    -2
100
AcDbLine
 10
4069.444412330438
 20
1753.740056328001
 30
0.0
 11
4109.444412330439
 21
1760.406722994667
 31
0.0
  0
LINE
  5
5B1
330
21
100
AcDbEntity
  8
0
  6
ByBlock
 62
     0
370
    -2
100
AcDbLine
 10
4069.444412330438
 20
1767.073389661333
 30
0.0
 11
4109.444412330439
 21
1760.406722994667
 31
0.0
  0
TEXT
  5
5B2
330
21
100
AcDbEntity
  8
1
 62
     7
100
AcDbText
 10
4121.111078997105
 20
1804.405216764069
 30
0.0
 40
50.0
  1
80
 41
0.7
100
AcDbText
  0
LINE
  5
5B3
330
21
100
AcDbEntity
  8
0
  6
ByBlock
 62
     0
370
    -2
100
AcDbLine
 10
4109.444412330439
 20
1760.406722994667
 30
0.0
 11
4149.444412330438
 21
1760.406722994667
 31
0.0
  0
LINE
  5
5B4
330
21
100
AcDbEntity
  8
0
  6
ByBlock
 62
     0
370
    -2
100
AcDbLine
 10
4149.444412330438
 20
1767.073389661333
 30
0.0
 11
4109.444412330439
 21
1760.406722994667
 31
0.0
  0
LINE
  5
5B5
330
21
100
AcDbEntity
  8
0
  6
ByBlock
 62
     0
370
    -2
100
AcDbLine
 10
4149.444412330438
 20
1753.740056328001
 30
0.0
 11
4109.444412330439
 21
1760.406722994667
 31
0.0
  0
LINE
  5
5B6
330
21
100
AcDbEntity
  8
0
  6
ByBlock
 62
     0
370
    -2
100
AcDbLine
 10
4009.444412330438
 20
1760.406722994667
 30
0.0
 11
3969.444412330439
 21
1760.406722994667
 31
0.0
  0
LINE
  5
5B7
330
21
100
AcDbEntity
  8
0
  6
ByBlock
 62
     0
370
    -2
100
AcDbLine
 10
3969.444412330439
 20
1753.740056328001
 30
0.0
 11
4009.444412330438
 21
1760.406722994667
 31
0.0
  0
LINE
  5
5B8
330
21
100
AcDbEntity
  8
0
  6
ByBlock
 62
     0
370
    -2
100
AcDbLine
 10
3969.444412330439
 20
1767.073389661333
 30
0.0
 11
4009.444412330438
 21
1760.406722994667
 31
0.0
  0
TEXT
  5
5B9
330
21
100
AcDbEntity
  8
1
 62
     7
100
AcDbText
 10
3912.533414293326
 20
1779.434268780213
 30
0.0
 40
50.0
  1
100
 41
0.7
100
AcDbText
  0
LINE
  5
5BA
330
21
100
AcDbEntity
  8
1
  6
Continuous
 62
     7
370
    18
100
AcDbLine
 10
6456.32443610169
 20
1421.26053952332
 30
0.0
 11
6456.324436101692
 21
1841.260539523322
 31
0.0
  0
LINE
  5
5BB
330
21
100
AcDbEntity
  8
1
  6
Continuous
 62
     7
370
    18
100
AcDbLine
 10
6089.444412330438
 20
1871.260539523322
 30
0.0
 11
6481.324436101691
 21
1871.260539523322
 31
0.0
  0
LINE
  5
5BC
330
21
100
AcDbEntity
  8
1
  6
Continuous
 62
     7
370
    18
100
AcDbLine
 10
6089.444412330438
 20
1391.26053952332
 30
0.0
 11
6481.32443610169
 21
1391.26053952332
 31
0.0
  0
LINE
  5
5BD
330
21
100
AcDbEntity
  8
1
  6
Continuous
 62
     7
370
    18
100
AcDbLine
 10
6333.852039465797
 20
1501.26053952332
 30
0.0
 11
6333.852039465797
 21
1841.260539523322
 31
0.0
  0
LINE
  5
5BE
330
21
100
AcDbEntity
  8
1
  6
Continuous
 62
     7
370
    18
100
AcDbLine
 10
6089.444412330438
 20
1871.260539523322
 30
0.0
 11
6358.852039465797
 21
1871.260539523322
 31
0.0
  0
LINE
  5
5BF
330
21
100
AcDbEntity
  8
1
  6
Continuous
 62
     7
370
    18
100
AcDbLine
 10
6064.444412330438
 20
1471.26053952332
 30
0.0
 11
6358.852039465796
 21
1471.26053952332
 31
0.0
  0
LINE
  5
5C0
330
21
100
AcDbEntity
  8
1
  6
Continuous
 62
     7
370
    18
100
AcDbLine
 10
6198.131787732695
 20
1501.26053952332
 30
0.0
 11
6198.131787732695
 21
1641.260539523318
 31
0.0
  0
LINE
  5
5C1
330
21
100
AcDbEntity
  8
1
  6
Continuous
 62
     7
370
    18
100
AcDbLine
 10
5980.444412330438
 20
1671.260539523318
 30
0.0
 11
6223.131787732695
 21
1671.260539523318
 31
0.0
  0
LINE
  5
5C2
330
21
100
AcDbEntity
  8
1
  6
Continuous
 62
     7
370
    18
100
AcDbLine
 10
6064.444412330438
 20
1471.26053952332
 30
0.0
 11
6223.131787732693
 21
1471.26053952332
 31
0.0
  0
LINE
  5
5C3
330
21
100
AcDbEntity
  8
1
  6
Continuous
 62
     7
370
    18
100
AcDbLine
 10
6333.852039465798
 20
1501.26053952332
 30
0.0
 11
6333.852039465798
 21
1531.26053952332
 31
0.0
  0
LINE
  5
5C4
330
21
100
AcDbEntity
  8
1
  6
Continuous
 62
     7
370
    18
100
AcDbLine
 10
6333.852039465797
 20
1361.26053952332
 30
0.0
 11
6333.852039465797
 21
1331.26053952332
 31
0.0
  0
LINE
  5
5C5
330
21
100
AcDbEntity
  8
1
  6
Continuous
 62
     7
370
    18
100
AcDbLine
 10
6064.444412330438
 20
1471.26053952332
 30
0.0
 11
6358.852039465797
 21
1471.26053952332
 31
0.0
  0
LINE
  5
5C6
330
21
100
AcDbEntity
  8
1
  6
Continuous
 62
     7
370
    18
100
AcDbLine
 10
6089.444412330438
 20
1391.26053952332
 30
0.0
 11
6358.852039465797
 21
1391.26053952332
 31
0.0
  0
LINE
  5
5C7
330
21
100
AcDbEntity
  8
1
  6
Continuous
 62
     7
370
    18
100
AcDbLine
 10
4076.944412330438
 20
1272.703486770449
 30
0.0
 11
5941.944412330436
 21
1272.703486770449
 31
0.0
  0
LINE
  5
5C8
330
21
100
AcDbEntity
  8
1
  6
Continuous
 62
     7
370
    18
100
AcDbLine
 10
5971.944412330437
 20
1311.26053952332
 30
0.0
 11
5971.944412330437
 21
1247.703486770449
 31
0.0
  0
LINE
  5
5C9
330
21
100
AcDbEntity
  8
1
  6
Continuous
 62
     7
370
    18
100
AcDbLine
 10
4046.944412330439
 20
1311.26053952332
 30
0.0
 11
4046.944412330439
 21
1247.703486770449
 31
0.0
  0
LINE
  5
5CA
330
21
100
AcDbEntity
  8
1
  6
Continuous
 62
     7
370
    18
100
AcDbLine
 10
4039.444412330438
 20
1074.999956563435
 30
0.0
 11
5979.444412330439
 21
1074.999956563435
 31
0.0
  0
LINE
  5
5CB
330
21
100
AcDbEntity
  8
1
  6
Continuous
 62
     7
370
    18
100
AcDbLine
 10
6009.444412330438
 20
1311.26053952332
 30
0.0
 11
6009.444412330438
 21
1049.999956563435
 31
0.0
  0
LINE
  5
5CC
330
21
100
AcDbEntity
  8
1
  6
Continuous
 62
     7
370
    18
100
AcDbLine
 10
4009.444412330438
 20
1311.26053952332
 30
0.0
 11
4009.444412330438
 21
1049.999956563435
 31
0.0
  0
LINE
  5
5CD
330
21
100
AcDbEntity
  8
1
  6
Continuous
 62
     7
370
    18
100
AcDbLine
 10
4946.944412330438
 20
3669.955952627716
 30
0.0
 11
5071.944412330438
 21
3669.955952627716
 31
0.0
  0
LINE
  5
5CE
330
21
100
AcDbEntity
  8
1
  6
Continuous
 62
     7
370
    18
100
AcDbLine
 10
5101.944412330438
 20
3947.800677269017
 30
0.0
 11
5101.944412330438
 21
3644.955952627716
 31
0.0
  0
LINE
  5
5CF
330
21
100
AcDbEntity
  8
1
  6
Continuous
 62
     7
370
    18
100
AcDbLine
 10
4916.944412330439
 20
3947.800677269017
 30
0.0
 11
4916.944412330439
 21
3644.955952627716
 31
0.0
  0
LINE
  5
5D0
330
21
100
AcDbEntity
  8
AM_0
  6
Continuous
100
AcDbLine
 10
5209.444412330438
 20
4262.800677269017
 30
0.0
 11
5219.444412330457
 21
4272.800677269017
 31
0.0
  0
LINE
  5
5D1
330
21
100
AcDbEntity
  8
AM_0
  6
Continuous
100
AcDbLine
 10
4809.444412330439
 20
4262.800677269017
 30
0.0
 11
5209.444412330438
 21
4262.800677269017
 31
0.0
  0
LINE
  5
5D2
330
21
100
AcDbEntity
  8
AM_0
  6
Continuous
100
AcDbLine
 10
4799.444412330427
 20
4272.800677269017
 30
0.0
 11
4809.444412330439
 21
4262.800677269017
 31
0.0
  0
LINE
  5
5D3
330
21
100
AcDbEntity
  8
AM_0
  6
Continuous
100
AcDbLine
 10
5209.444412330438
 20
4262.800677269017
 30
0.0
 11
5219.444412330457
 21
4272.800677269017
 31
0.0
  0
LINE
  5
5D4
330
21
100
AcDbEntity
  8
AM_0
  6
Continuous
100
AcDbLine
 10
4809.444412330439
 20
4262.800677269017
 30
0.0
 11
5209.444412330438
 21
4262.800677269017
 31
0.0
  0
LINE
  5
5D5
330
21
100
AcDbEntity
  8
AM_0
  6
Continuous
100
AcDbLine
 10
4799.444412330427
 20
4272.800677269017
 30
0.0
 11
4809.444412330439
 21
4262.800677269017
 31
0.0
  0
LINE
  5
5D6
330
21
100
AcDbEntity
  8
1
  6
Continuous
 62
     7
370
    18
100
AcDbLine
 10
8109.999982330439
 20
-0.0000243919639615
 30
0.0
 11
-0.0000176695612026
 21
-0.0000243919639615
 31
0.0
  0
LINE
  5
5D7
330
21
100
AcDbEntity
  8
1
  6
Continuous
 62
     7
370
    18
100
AcDbLine
 10
8109.999982330439
 20
5639.999975608036
 30
0.0
 11
8109.999982330439
 21
-0.0000243919639615
 31
0.0
  0
LINE
  5
5D8
330
21
100
AcDbEntity
  8
1
  6
Continuous
 62
     7
370
    18
100
AcDbLine
 10
-0.0000176695612026
 20
5639.999975608036
 30
0.0
 11
8109.999982330439
 21
5639.999975608036
 31
0.0
  0
LINE
  5
5D9
330
21
100
AcDbEntity
  8
1
  6
Continuous
 62
     7
370
    18
100
AcDbLine
 10
-0.0000176695612026
 20
-0.0000243919639615
 30
0.0
 11
-0.0000176695612026
 21
5639.999975608036
 31
0.0
  0
LINE
  5
5DA
330
21
100
AcDbEntity
  8
1
  6
Continuous
 62
     7
370
    18
100
AcDbLine
 10
5155.182802330439
 20
4242.800677269016
 30
0.0
 11
5155.182802330439
 21
4057.800677269017
 31
0.0
  0
LINE
  5
5DB
330
21
100
AcDbEntity
  8
1
  6
Continuous
 62
     7
370
    18
100
AcDbLine
 10
5110.444412330438
 20
4027.800677269016
 30
0.0
 11
5180.182802330438
 21
4027.800677269016
 31
0.0
  0
LINE
  5
5DC
330
21
100
AcDbEntity
  8
1
  6
Continuous
 62
     7
370
    18
100
AcDbLine
 10
5110.444412330438
 20
4272.800677269017
 30
0.0
 11
5180.182802330438
 21
4272.800677269017
 31
0.0
  0
LINE
  5
5DD
330
21
100
AcDbEntity
  8
1
  6
Continuous
 62
     7
370
    18
100
AcDbLine
 10
1286.424165330438
 20
3622.800677269021
 30
0.0
 11
1286.424165330438
 21
3202.800677269017
 31
0.0
  0
LINE
  5
5DE
330
21
100
AcDbEntity
  8
1
  6
Continuous
 62
     7
370
    18
100
AcDbLine
 10
1574.745616330438
 20
3172.800677269017
 30
0.0
 11
1261.424165330438
 21
3172.800677269017
 31
0.0
  0
LINE
  5
5DF
330
21
100
AcDbEntity
  8
1
  6
Continuous
 62
     7
370
    18
100
AcDbLine
 10
1584.745616330438
 20
3652.80067726902
 30
0.0
 11
1261.424165330438
 21
3652.80067726902
 31
0.0
  0
LINE
  5
5E0
330
21
100
AcDbEntity
  8
1
  6
Continuous
 62
     7
370
    18
100
AcDbLine
 10
1514.135009330439
 20
3142.800677269017
 30
0.0
 11
1514.135009330439
 21
3112.800677269017
 31
0.0
  0
LINE
  5
5E1
330
21
100
AcDbEntity
  8
1
  6
Continuous
 62
     7
370
    18
100
AcDbLine
 10
1514.135009330439
 20
3282.800677269017
 30
0.0
 11
1514.135009330439
 21
3312.800677269017
 31
0.0
  0
LINE
  5
5E2
330
21
100
AcDbEntity
  8
1
  6
Continuous
 62
     7
370
    18
100
AcDbLine
 10
1574.745616330438
 20
3172.800677269017
 30
0.0
 11
1489.135009330439
 21
3172.800677269017
 31
0.0
  0
LINE
  5
5E3
330
21
100
AcDbEntity
  8
1
  6
Continuous
 62
     7
370
    18
100
AcDbLine
 10
1580.745616330438
 20
3252.800677269017
 30
0.0
 11
1489.135009330439
 21
3252.800677269017
 31
0.0
  0
LINE
  5
5E4
330
21
100
AcDbEntity
  8
1
  6
Continuous
 62
     7
370
    18
100
AcDbLine
 10
1684.745616330438
 20
3894.662970269019
 30
0.0
 11
1944.745616330438
 21
3894.662970269019
 31
0.0
  0
LINE
  5
5E5
330
21
100
AcDbEntity
  8
1
  6
Continuous
 62
     7
370
    18
100
AcDbLine
 10
1974.745616330437
 20
3732.800677269021
 30
0.0
 11
1974.745616330437
 21
3919.662970269019
 31
0.0
  0
LINE
  5
5E6
330
21
100
AcDbEntity
  8
1
  6
Continuous
 62
     7
370
    18
100
AcDbLine
 10
1654.745616330438
 20
3722.800677269021
 30
0.0
 11
1654.745616330438
 21
3919.662970269019
 31
0.0
  0
LINE
  5
5E7
330
21
100
AcDbEntity
  8
1
  6
Continuous
 62
     7
370
    18
100
AcDbLine
 10
1944.745616330438
 20
3894.662970269019
 30
0.0
 11
1914.745616330438
 21
3894.662970269019
 31
0.0
  0
LINE
  5
5E8
330
21
100
AcDbEntity
  8
1
  6
Continuous
 62
     7
370
    18
100
AcDbLine
 10
2084.745616330438
 20
3894.662970269019
 30
0.0
 11
2114.745616330438
 21
3894.662970269019
 31
0.0
  0
LINE
  5
5E9
330
21
100
AcDbEntity
  8
1
  6
Continuous
 62
     7
370
    18
100
AcDbLine
 10
1974.745616330437
 20
3732.800677269021
 30
0.0
 11
1974.745616330437
 21
3919.662970269019
 31
0.0
  0
LINE
  5
5EA
330
21
100
AcDbEntity
  8
1
  6
Continuous
 62
     7
370
    18
100
AcDbLine
 10
2054.745616330438
 20
3732.800677269093
 30
0.0
 11
2054.745616330438
 21
3919.662970269019
 31
0.0
  0
LINE
  5
5EB
330
21
100
AcDbEntity
  8
1
  6
Continuous
 62
     7
370
    18
100
AcDbLine
 10
3574.444412330438
 20
4242.800677269016
 30
0.0
 11
3574.444412330438
 21
3502.800677269017
 31
0.0
  0
LINE
  5
5EC
330
21
100
AcDbEntity
  8
1
  6
Continuous
 62
     7
370
    18
100
AcDbLine
 10
3966.944412330439
 20
3472.800677269017
 30
0.0
 11
3549.444412330438
 21
3472.800677269017
 31
0.0
  0
LINE
  5
5ED
330
21
100
AcDbEntity
  8
1
  6
Continuous
 62
     7
370
    18
100
AcDbLine
 10
3979.444412330439
 20
4272.800677269017
 30
0.0
 11
3549.444412330438
 21
4272.800677269017
 31
0.0
  0
LINE
  5
5EE
330
21
100
AcDbEntity
  8
1
  6
Continuous
 62
     7
370
    18
100
AcDbLine
 10
3729.13689133044
 20
4242.800677269016
 30
0.0
 11
3729.13689133044
 21
3982.800677269017
 31
0.0
  0
LINE
  5
5EF
330
21
100
AcDbEntity
  8
1
  6
Continuous
 62
     7
370
    18
100
AcDbLine
 10
3954.444412330439
 20
3952.800677269017
 30
0.0
 11
3704.13689133044
 21
3952.800677269017
 31
0.0
  0
LINE
  5
5F0
330
21
100
AcDbEntity
  8
1
  6
Continuous
 62
     7
370
    18
100
AcDbLine
 10
3979.444412330439
 20
4272.800677269017
 30
0.0
 11
3704.13689133044
 21
4272.800677269017
 31
0.0
  0
LINE
  5
5F1
330
21
100
AcDbEntity
  8
1
  6
Continuous
 62
     7
370
    18
100
AcDbLine
 10
3729.13689133044
 20
3842.800677269017
 30
0.0
 11
3729.13689133044
 21
3812.800677269017
 31
0.0
  0
LINE
  5
5F2
330
21
100
AcDbEntity
  8
1
  6
Continuous
 62
     7
370
    18
100
AcDbLine
 10
3729.13689133044
 20
3982.800677269017
 30
0.0
 11
3729.13689133044
 21
4012.800677269017
 31
0.0
  0
LINE
  5
5F3
330
21
100
AcDbEntity
  8
1
  6
Continuous
 62
     7
370
    18
100
AcDbLine
 10
3954.444412330439
 20
3872.800677269017
 30
0.0
 11
3704.13689133044
 21
3872.800677269017
 31
0.0
  0
LINE
  5
5F4
330
21
100
AcDbEntity
  8
1
  6
Continuous
 62
     7
370
    18
100
AcDbLine
 10
3954.444412330439
 20
3952.800677269017
 30
0.0
 11
3704.13689133044
 21
3952.800677269017
 31
0.0
  0
LINE
  5
5F5
330
21
100
AcDbEntity
  8
1
  6
Continuous
 62
     7
370
    18
100
AcDbLine
 10
4076.944412330438
 20
3049.60138440071
 30
0.0
 11
5941.944412330439
 21
3049.60138440071
 31
0.0
  0
LINE
  5
5F6
330
21
100
AcDbEntity
  8
1
  6
Continuous
 62
     7
370
    18
100
AcDbLine
 10
5971.944412330438
 20
3392.800677269017
 30
0.0
 11
5971.944412330438
 21
3024.60138440071
 31
0.0
  0
LINE
  5
5F7
330
21
100
AcDbEntity
  8
1
  6
Continuous
 62
     7
370
    18
100
AcDbLine
 10
4046.944412330439
 20
3392.800677269017
 30
0.0
 11
4046.944412330439
 21
3024.60138440071
 31
0.0
  0
LINE
  5
5F8
330
21
100
AcDbEntity
  8
1
  6
Continuous
 62
     7
370
    18
100
AcDbLine
 10
4219.444412330438
 20
3342.337372269018
 30
0.0
 11
4249.444412330438
 21
3342.337372269018
 31
0.0
  0
LINE
  5
5F9
330
21
100
AcDbEntity
  8
1
  6
Continuous
 62
     7
370
    18
100
AcDbLine
 10
4079.444412330438
 20
3342.337372269018
 30
0.0
 11
4049.444412330438
 21
3342.337372269018
 31
0.0
  0
LINE
  5
5FA
330
21
100
AcDbEntity
  8
1
  6
Continuous
 62
     7
370
    18
100
AcDbLine
 10
4189.444412330438
 20
3411.800677269005
 30
0.0
 11
4189.444412330438
 21
3317.337372269018
 31
0.0
  0
LINE
  5
5FB
330
21
100
AcDbEntity
  8
1
  6
Continuous
 62
     7
370
    18
100
AcDbLine
 10
4109.444412330439
 20
3411.800677269005
 30
0.0
 11
4109.444412330439
 21
3317.337372269018
 31
0.0
  0
LINE
  5
5FC
330
21
100
AcDbEntity
  8
1
  6
Continuous
 62
     7
370
    18
100
AcDbLine
 10
4064.444412330438
 20
3696.171620269018
 30
0.0
 11
4094.444412330438
 21
3696.171620269018
 31
0.0
  0
LINE
  5
5FD
330
21
100
AcDbEntity
  8
1
  6
Continuous
 62
     7
370
    18
100
AcDbLine
 10
3979.450663330439
 20
3696.171620269018
 30
0.0
 11
3949.450663330439
 21
3696.171620269018
 31
0.0
  0
LINE
  5
5FE
330
21
100
AcDbEntity
  8
1
  6
Continuous
 62
     7
370
    18
100
AcDbLine
 10
4034.444412330438
 20
3792.800677269017
 30
0.0
 11
4034.444412330438
 21
3671.171620269018
 31
0.0
  0
LINE
  5
5FF
330
21
100
AcDbEntity
  8
1
  6
Continuous
 62
     7
370
    18
100
AcDbLine
 10
4009.450663330439
 20
3832.168247269016
 30
0.0
 11
4009.450663330439
 21
3671.171620269018
 31
0.0
  0
LINE
  5
600
330
21
100
AcDbEntity
  8
1
  6
Continuous
 62
     7
370
    18
100
AcDbLine
 10
5979.304235330439
 20
3687.183465269016
 30
0.0
 11
5939.444412330438
 21
3687.183465269016
 31
0.0
  0
LINE
  5
601
330
21
100
AcDbEntity
  8
1
  6
Continuous
 62
     7
370
    18
100
AcDbLine
 10
5909.444412330438
 20
3757.300677269014
 30
0.0
 11
5909.444412330438
 21
3712.183465269016
 31
0.0
  0
LINE
  5
602
330
21
100
AcDbEntity
  8
1
  6
Continuous
 62
     7
370
    18
100
AcDbLine
 10
6009.304235330439
 20
3828.591814769018
 30
0.0
 11
6009.304235330439
 21
3662.183465269016
 31
0.0
  0
LINE
  5
603
330
21
100
AcDbEntity
  8
1
  6
Continuous
 62
     7
370
    18
100
AcDbLine
 10
6596.336059330439
 20
4242.800677269016
 30
0.0
 11
6596.336059330439
 21
3502.800677269017
 31
0.0
  0
LINE
  5
604
330
21
100
AcDbEntity
  8
1
  6
Continuous
 62
     7
370
    18
100
AcDbLine
 10
6051.944412330438
 20
3472.800677269017
 30
0.0
 11
6621.336059330438
 21
3472.800677269017
 31
0.0
  0
LINE
  5
605
330
21
100
AcDbEntity
  8
1
  6
Continuous
 62
     7
370
    18
100
AcDbLine
 10
6039.444412330438
 20
4272.800677269017
 30
0.0
 11
6621.336059330438
 21
4272.800677269017
 31
0.0
  0
LINE
  5
606
330
21
100
AcDbEntity
  8
1
  6
Continuous
 62
     7
370
    18
100
AcDbLine
 10
6315.826764330439
 20
4242.800677269016
 30
0.0
 11
6315.826764330439
 21
3902.800677269017
 31
0.0
  0
LINE
  5
607
330
21
100
AcDbEntity
  8
1
  6
Continuous
 62
     7
370
    18
100
AcDbLine
 10
6064.444412330438
 20
3872.800677269017
 30
0.0
 11
6340.826764330439
 21
3872.800677269017
 31
0.0
  0
LINE
  5
608
330
21
100
AcDbEntity
  8
1
  6
Continuous
 62
     7
370
    18
100
AcDbLine
 10
6039.444412330438
 20
4272.800677269017
 30
0.0
 11
6340.826764330439
 21
4272.800677269017
 31
0.0
  0
LINE
  5
609
330
21
100
AcDbEntity
  8
1
  6
Continuous
 62
     7
370
    18
100
AcDbLine
 10
6315.826764330439
 20
3842.800677269017
 30
0.0
 11
6315.826764330439
 21
3502.800677269017
 31
0.0
  0
LINE
  5
60A
330
21
100
AcDbEntity
  8
1
  6
Continuous
 62
     7
370
    18
100
AcDbLine
 10
6051.944412330438
 20
3472.800677269017
 30
0.0
 11
6340.826764330439
 21
3472.800677269017
 31
0.0
  0
LINE
  5
60B
330
21
100
AcDbEntity
  8
1
  6
Continuous
 62
     7
370
    18
100
AcDbLine
 10
6064.444412330438
 20
3872.800677269017
 30
0.0
 11
6340.826764330439
 21
3872.800677269017
 31
0.0
  0
LINE
  5
60C
330
21
100
AcDbEntity
  8
1
  6
Continuous
 62
     7
370
    18
100
AcDbLine
 10
4039.495794830438
 20
4806.711907269018
 30
0.0
 11
5979.35416933044
 21
4806.711907269018
 31
0.0
  0
LINE
  5
60D
330
21
100
AcDbEntity
  8
1
  6
Continuous
 62
     7
370
    18
100
AcDbLine
 10
6009.354169330439
 20
3996.170014769017
 30
0.0
 11
6009.354169330439
 21
4831.711907269018
 31
0.0
  0
LINE
  5
60E
330
21
100
AcDbEntity
  8
1
  6
Continuous
 62
     7
370
    18
100
AcDbLine
 10
4009.495794830438
 20
3990.272362769018
 30
0.0
 11
4009.495794830438
 21
4831.711907269018
 31
0.0
  0
LINE
  5
60F
330
21
100
AcDbEntity
  8
1
  6
Continuous
 62
     7
370
    18
100
AcDbLine
 10
4089.444412330438
 20
4681.033034269018
 30
0.0
 11
5929.444412330439
 21
4681.033034269018
 31
0.0
  0
LINE
  5
610
330
21
100
AcDbEntity
  8
1
  6
Continuous
 62
     7
370
    18
100
AcDbLine
 10
5959.444412330438
 20
4352.800677269017
 30
0.0
 11
5959.444412330438
 21
4706.033034269018
 31
0.0
  0
LINE
  5
611
330
21
100
AcDbEntity
  8
1
  6
Continuous
 62
     7
370
    18
100
AcDbLine
 10
4059.444412330438
 20
4352.800677269017
 30
0.0
 11
4059.444412330438
 21
4706.033034269018
 31
0.0
  0
LINE
  5
612
330
21
100
AcDbEntity
  8
1
  6
Continuous
 62
     7
370
    18
100
AcDbLine
 10
6039.444412330438
 20
4681.033034269018
 30
0.0
 11
6069.444412330438
 21
4681.033034269018
 31
0.0
  0
LINE
  5
613
330
21
100
AcDbEntity
  8
1
  6
Continuous
 62
     7
370
    18
100
AcDbLine
 10
5929.444412330439
 20
4681.033034269018
 30
0.0
 11
5899.444412330439
 21
4681.033034269018
 31
0.0
  0
LINE
  5
614
330
21
100
AcDbEntity
  8
1
  6
Continuous
 62
     7
370
    18
100
AcDbLine
 10
6009.444412330438
 20
4671.627749269016
 30
0.0
 11
6009.444412330438
 21
4706.033034269018
 31
0.0
  0
LINE
  5
615
330
21
100
AcDbEntity
  8
1
  6
Continuous
 62
     7
370
    18
100
AcDbLine
 10
5959.444412330438
 20
4761.033034269018
 30
0.0
 11
5959.444412330438
 21
4706.033034269018
 31
0.0
  0
LINE
  5
616
330
21
100
AcDbEntity
  8
1
  6
Continuous
 62
     7
370
    18
100
AcDbLine
 10
3979.495794830438
 20
4681.033034269018
 30
0.0
 11
3949.495794830438
 21
4681.033034269018
 31
0.0
  0
LINE
  5
617
330
21
100
AcDbEntity
  8
1
  6
Continuous
 62
     7
370
    18
100
AcDbLine
 10
4089.444412330438
 20
4681.033034269018
 30
0.0
 11
4119.444412330438
 21
4681.033034269018
 31
0.0
  0
LINE
  5
618
330
21
100
AcDbEntity
  8
1
  6
Continuous
 62
     7
370
    18
100
AcDbLine
 10
4009.495794830438
 20
3990.272362769018
 30
0.0
 11
4009.495794830438
 21
4706.033034269018
 31
0.0
  0
LINE
  5
619
330
21
100
AcDbEntity
  8
1
  6
Continuous
 62
     7
370
    18
100
AcDbLine
 10
4059.444412330438
 20
4352.800677269017
 30
0.0
 11
4059.444412330438
 21
4706.033034269018
 31
0.0
  0
LINE
  5
61A
330
21
100
AcDbEntity
  8
1
  6
Continuous
 62
     7
370
    18
100
AcDbLine
 10
4839.444412330438
 20
4433.209789270433
 30
0.0
 11
5179.44441233044
 21
4433.209789270433
 31
0.0
  0
LINE
  5
61B
330
21
100
AcDbEntity
  8
1
  6
Continuous
 62
     7
370
    18
100
AcDbLine
 10
5209.444412330441
 20
4342.800677269017
 30
0.0
 11
5209.444412330441
 21
4458.209789270433
 31
0.0
  0
LINE
  5
61C
330
21
100
AcDbEntity
  8
1
  6
Continuous
 62
     7
370
    18
100
AcDbLine
 10
4809.444412330439
 20
4342.800677269017
 30
0.0
 11
4809.444412330439
 21
4458.209789270433
 31
0.0
  0
LINE
  5
61D
330
21
100
AcDbEntity
  8
1
  6
Continuous
 62
     7
370
    18
100
AcDbLine
 10
3729.13689133044
 20
3842.800677269017
 30
0.0
 11
3729.13689133044
 21
3502.800677269017
 31
0.0
  0
LINE
  5
61E
330
21
100
AcDbEntity
  8
1
  6
Continuous
 62
     7
370
    18
100
AcDbLine
 10
3966.944412330439
 20
3472.800677269017
 30
0.0
 11
3704.13689133044
 21
3472.800677269017
 31
0.0
  0
LINE
  5
61F
330
21
100
AcDbEntity
  8
1
  6
Continuous
 62
     7
370
    18
100
AcDbLine
 10
3954.444412330439
 20
3872.800677269017
 30
0.0
 11
3704.13689133044
 21
3872.800677269017
 31
0.0
  0
LINE
  5
620
330
21
100
AcDbEntity
  8
1
  6
Continuous
 62
     7
370
    18
100
AcDbLine
 10
4867.403639829295
 20
4242.800677269016
 30
0.0
 11
4867.403639829295
 21
3902.800677269017
 31
0.0
  0
LINE
  5
621
330
21
100
AcDbEntity
  8
1
  6
Continuous
 62
     7
370
    18
100
AcDbLine
 10
4792.423227330439
 20
3872.800677269017
 30
0.0
 11
4842.403639829296
 21
3872.800677269017
 31
0.0
  0
LINE
  5
622
330
21
100
AcDbEntity
  8
1
  6
Continuous
 62
     7
370
    18
100
AcDbLine
 10
4792.72069233044
 20
4272.800677269017
 30
0.0
 11
4842.403639829296
 21
4272.800677269017
 31
0.0
  0
LINE
  5
623
330
21
100
AcDbEntity
  8
1
  6
Continuous
 62
     7
370
    18
100
AcDbLine
 10
5039.444412330438
 20
4564.665819289316
 30
0.0
 11
5929.444412330439
 21
4564.665819289316
 31
0.0
  0
LINE
  5
624
330
21
100
AcDbEntity
  8
1
  6
Continuous
 62
     7
370
    18
100
AcDbLine
 10
5959.444412330438
 20
4352.800677269017
 30
0.0
 11
5959.444412330438
 21
4589.665819289315
 31
0.0
  0
LINE
  5
625
330
21
100
AcDbEntity
  8
1
  6
Continuous
 62
     7
370
    18
100
AcDbLine
 10
5009.444412330438
 20
4503.435100269016
 30
0.0
 11
5009.444412330438
 21
4589.665819289315
 31
0.0
  0
LINE
  5
626
330
21
100
AcDbEntity
  8
1
  6
Continuous
 62
     7
370
    18
100
AcDbLine
 10
4979.444412330439
 20
4564.665819289316
 30
0.0
 11
4089.444412330438
 21
4564.665819289316
 31
0.0
  0
LINE
  5
627
330
21
100
AcDbEntity
  8
1
  6
Continuous
 62
     7
370
    18
100
AcDbLine
 10
4059.444412330438
 20
4352.800677269017
 30
0.0
 11
4059.444412330438
 21
4589.665819289315
 31
0.0
  0
LINE
  5
628
330
21
100
AcDbEntity
  8
1
  6
Continuous
 62
     7
370
    18
100
AcDbLine
 10
5009.444412330438
 20
4517.772449269017
 30
0.0
 11
5009.444412330438
 21
4589.665819289315
 31
0.0
  0
LINE
  5
629
330
21
100
AcDbEntity
  8
1
  6
Continuous
 62
     7
370
    18
100
AcDbLine
 10
1684.745616330438
 20
2777.451738269018
 30
0.0
 11
2424.745616330438
 21
2777.451738269018
 31
0.0
  0
LINE
  5
62A
330
21
100
AcDbEntity
  8
1
  6
Continuous
 62
     7
370
    18
100
AcDbLine
 10
2454.745616330438
 20
3092.800677269017
 30
0.0
 11
2454.745616330438
 21
2752.451738269018
 31
0.0
  0
LINE
  5
62B
330
21
100
AcDbEntity
  8
1
  6
Continuous
 62
     7
370
    18
100
AcDbLine
 10
1654.745616330438
 20
3092.800677269017
 30
0.0
 11
1654.745616330438
 21
2752.451738269018
 31
0.0
  0
LINE
  5
62C
330
21
100
AcDbEntity
  8
1
  6
Continuous
 62
     7
370
    18
100
AcDbLine
 10
2754.519565330439
 20
3142.800677269017
 30
0.0
 11
2754.519565330439
 21
3112.800677269017
 31
0.0
  0
LINE
  5
62D
330
21
100
AcDbEntity
  8
1
  6
Continuous
 62
     7
370
    18
100
AcDbLine
 10
2754.519565330439
 20
3282.800677269017
 30
0.0
 11
2754.519565330439
 21
3312.800677269017
 31
0.0
  0
LINE
  5
62E
330
21
100
AcDbEntity
  8
1
  6
Continuous
 62
     7
370
    18
100
AcDbLine
 10
2534.745616330438
 20
3172.800677269017
 30
0.0
 11
2779.519565330438
 21
3172.800677269017
 31
0.0
  0
LINE
  5
62F
330
21
100
AcDbEntity
  8
1
  6
Continuous
 62
     7
370
    18
100
AcDbLine
 10
2534.745616330438
 20
3252.800677269017
 30
0.0
 11
2779.519565330438
 21
3252.800677269017
 31
0.0
  0
LINE
  5
630
330
21
100
AcDbEntity
  8
1
  6
Continuous
 62
     7
370
    18
100
AcDbLine
 10
1684.745616330438
 20
4098.453879269018
 30
0.0
 11
2024.745616330438
 21
4098.453879269018
 31
0.0
  0
LINE
  5
631
330
21
100
AcDbEntity
  8
1
  6
Continuous
 62
     7
370
    18
100
AcDbLine
 10
2054.745616330438
 20
3732.800677269093
 30
0.0
 11
2054.745616330438
 21
4123.453879269018
 31
0.0
  0
LINE
  5
632
330
21
100
AcDbEntity
  8
1
  6
Continuous
 62
     7
370
    18
100
AcDbLine
 10
1654.745616330438
 20
3722.800677269021
 30
0.0
 11
1654.745616330438
 21
4123.453879269018
 31
0.0
  0
LINE
  5
633
330
21
100
AcDbEntity
  8
1
  6
Continuous
 62
     7
370
    18
100
AcDbLine
 10
2947.187509330439
 20
3622.800677269093
 30
0.0
 11
2947.187509330439
 21
3202.800677269017
 31
0.0
  0
LINE
  5
634
330
21
100
AcDbEntity
  8
1
  6
Continuous
 62
     7
370
    18
100
AcDbLine
 10
2534.745616330438
 20
3172.800677269017
 30
0.0
 11
2972.187509330439
 21
3172.800677269017
 31
0.0
  0
LINE
  5
635
330
21
100
AcDbEntity
  8
1
  6
Continuous
 62
     7
370
    18
100
AcDbLine
 10
2134.745616330438
 20
3652.800677269094
 30
0.0
 11
2972.187509330439
 21
3652.800677269094
 31
0.0
  0
LINE
  5
636
330
21
100
AcDbEntity
  8
1
  6
Continuous
 62
     7
370
    18
100
AcDbLine
 10
2084.745616330438
 20
4098.453879269018
 30
0.0
 11
2424.745616330438
 21
4098.453879269018
 31
0.0
  0
LINE
  5
637
330
21
100
AcDbEntity
  8
1
  6
Continuous
 62
     7
370
    18
100
AcDbLine
 10
2454.745616330438
 20
3332.800677269017
 30
0.0
 11
2454.745616330438
 21
4123.453879269018
 31
0.0
  0
LINE
  5
638
330
21
100
AcDbEntity
  8
1
  6
Continuous
 62
     7
370
    18
100
AcDbLine
 10
2054.745616330438
 20
3837.800677269017
 30
0.0
 11
2054.745616330438
 21
4123.453879269018
 31
0.0
  0
LINE
  5
639
330
21
100
AcDbEntity
  8
1
  6
Continuous
 62
     7
370
    18
100
AcDbLine
 10
2754.519565330439
 20
3422.800677269015
 30
0.0
 11
2754.519565330439
 21
3282.800677269017
 31
0.0
  0
LINE
  5
63A
330
21
100
AcDbEntity
  8
1
  6
Continuous
 62
     7
370
    18
100
AcDbLine
 10
2534.745616330438
 20
3252.800677269017
 30
0.0
 11
2779.519565330438
 21
3252.800677269017
 31
0.0
  0
LINE
  5
63B
330
21
100
AcDbEntity
  8
1
  6
Continuous
 62
     7
370
    18
100
AcDbLine
 10
2505.745616330453
 20
3452.800677269016
 30
0.0
 11
2779.519565330438
 21
3452.800677269016
 31
0.0
  0
LINE
  5
63C
330
21
100
AcDbEntity
  8
1
  6
Continuous
 62
     7
370
    18
100
AcDbLine
 10
2754.519565330439
 20
3622.800677269093
 30
0.0
 11
2754.519565330439
 21
3482.800677269015
 31
0.0
  0
LINE
  5
63D
330
21
100
AcDbEntity
  8
1
  6
Continuous
 62
     7
370
    18
100
AcDbLine
 10
2505.745616330453
 20
3452.800677269016
 30
0.0
 11
2779.519565330438
 21
3452.800677269016
 31
0.0
  0
LINE
  5
63E
330
21
100
AcDbEntity
  8
1
  6
Continuous
 62
     7
370
    18
100
AcDbLine
 10
2134.745616330438
 20
3652.800677269094
 30
0.0
 11
2779.519565330438
 21
3652.800677269094
 31
0.0
  0
LINE
  5
63F
330
21
100
AcDbEntity
  8
1
  6
Continuous
 62
     7
370
    18
100
AcDbLine
 10
5984.97148633044
 20
3952.791786269016
 30
0.0
 11
5984.444412330439
 21
3952.800677269017
 31
0.0
  0
LINE
  5
640
330
21
100
AcDbEntity
  8
1
  6
Continuous
 62
     7
370
    18
100
AcDbLine
 10
5985.498325330438
 20
3952.765118269017
 30
0.0
 11
5984.97148633044
 21
3952.791786269016
 31
0.0
  0
LINE
  5
641
330
21
100
AcDbEntity
  8
1
  6
Continuous
 62
     7
370
    18
100
AcDbLine
 10
5986.024696330439
 20
3952.720683269017
 30
0.0
 11
5985.498325330438
 21
3952.765118269017
 31
0.0
  0
LINE
  5
642
330
21
100
AcDbEntity
  8
1
  6
Continuous
 62
     7
370
    18
100
AcDbLine
 10
5986.550365330439
 20
3952.65850326902
 30
0.0
 11
5986.024696330439
 21
3952.720683269017
 31
0.0
  0
LINE
  5
643
330
21
100
AcDbEntity
  8
1
  6
Continuous
 62
     7
370
    18
100
AcDbLine
 10
5987.075097330438
 20
3952.578604269016
 30
0.0
 11
5986.550365330439
 21
3952.65850326902
 31
0.0
  0
LINE
  5
644
330
21
100
AcDbEntity
  8
1
  6
Continuous
 62
     7
370
    18
100
AcDbLine
 10
5987.598660330439
 20
3952.481023269018
 30
0.0
 11
5987.075097330438
 21
3952.578604269016
 31
0.0
  0
LINE
  5
645
330
21
100
AcDbEntity
  8
1
  6
Continuous
 62
     7
370
    18
100
AcDbLine
 10
5988.120821330438
 20
3952.365802269018
 30
0.0
 11
5987.598660330439
 21
3952.481023269018
 31
0.0
  0
LINE
  5
646
330
21
100
AcDbEntity
  8
1
  6
Continuous
 62
     7
370
    18
100
AcDbLine
 10
5988.641347330439
 20
3952.232992269019
 30
0.0
 11
5988.120821330438
 21
3952.365802269018
 31
0.0
  0
LINE
  5
647
330
21
100
AcDbEntity
  8
1
  6
Continuous
 62
     7
370
    18
100
AcDbLine
 10
5989.160008330438
 20
3952.08265426902
 30
0.0
 11
5988.641347330439
 21
3952.232992269019
 31
0.0
  0
LINE
  5
648
330
21
100
AcDbEntity
  8
1
  6
Continuous
 62
     7
370
    18
100
AcDbLine
 10
5989.676572330438
 20
3951.914852269016
 30
0.0
 11
5989.160008330438
 21
3952.08265426902
 31
0.0
  0
LINE
  5
649
330
21
100
AcDbEntity
  8
1
  6
Continuous
 62
     7
370
    18
100
AcDbLine
 10
5990.190811330438
 20
3951.72966426902
 30
0.0
 11
5989.676572330438
 21
3951.914852269016
 31
0.0
  0
LINE
  5
64A
330
21
100
AcDbEntity
  8
1
  6
Continuous
 62
     7
370
    18
100
AcDbLine
 10
5990.702495330439
 20
3951.527169269019
 30
0.0
 11
5990.190811330438
 21
3951.72966426902
 31
0.0
  0
LINE
  5
64B
330
21
100
AcDbEntity
  8
1
  6
Continuous
 62
     7
370
    18
100
AcDbLine
 10
5991.211397330438
 20
3951.307459269017
 30
0.0
 11
5990.702495330439
 21
3951.527169269019
 31
0.0
  0
LINE
  5
64C
330
21
100
AcDbEntity
  8
1
  6
Continuous
 62
     7
370
    18
100
AcDbLine
 10
5991.717290330438
 20
3951.070631269016
 30
0.0
 11
5991.211397330438
 21
3951.307459269017
 31
0.0
  0
LINE
  5
64D
330
21
100
AcDbEntity
  8
1
  6
Continuous
 62
     7
370
    18
100
AcDbLine
 10
5992.219951330438
 20
3950.816791269019
 30
0.0
 11
5991.717290330438
 21
3951.070631269016
 31
0.0
  0
LINE
  5
64E
330
21
100
AcDbEntity
  8
1
  6
Continuous
 62
     7
370
    18
100
AcDbLine
 10
5992.719155330438
 20
3950.546051269019
 30
0.0
 11
5992.219951330438
 21
3950.816791269019
 31
0.0
  0
LINE
  5
64F
330
21
100
AcDbEntity
  8
1
  6
Continuous
 62
     7
370
    18
100
AcDbLine
 10
5993.214681330439
 20
3950.258532269018
 30
0.0
 11
5992.719155330438
 21
3950.546051269019
 31
0.0
  0
LINE
  5
650
330
21
100
AcDbEntity
  8
1
  6
Continuous
 62
     7
370
    18
100
AcDbLine
 10
5993.706308330438
 20
3949.954361269018
 30
0.0
 11
5993.214681330439
 21
3950.258532269018
 31
0.0
  0
LINE
  5
651
330
21
100
AcDbEntity
  8
1
  6
Continuous
 62
     7
370
    18
100
AcDbLine
 10
5994.193818330439
 20
3949.633674269018
 30
0.0
 11
5993.706308330438
 21
3949.954361269018
 31
0.0
  0
LINE
  5
652
330
21
100
AcDbEntity
  8
1
  6
Continuous
 62
     7
370
    18
100
AcDbLine
 10
5994.676993330439
 20
3949.29661326902
 30
0.0
 11
5994.193818330439
 21
3949.633674269018
 31
0.0
  0
LINE
  5
653
330
21
100
AcDbEntity
  8
1
  6
Continuous
 62
     7
370
    18
100
AcDbLine
 10
5995.155620330439
 20
3948.943328269019
 30
0.0
 11
5994.676993330439
 21
3949.29661326902
 31
0.0
  0
LINE
  5
654
330
21
100
AcDbEntity
  8
1
  6
Continuous
 62
     7
370
    18
100
AcDbLine
 10
5995.62948633044
 20
3948.573977269017
 30
0.0
 11
5995.155620330439
 21
3948.943328269019
 31
0.0
  0
LINE
  5
655
330
21
100
AcDbEntity
  8
1
  6
Continuous
 62
     7
370
    18
100
AcDbLine
 10
5996.098379330438
 20
3948.188722269017
 30
0.0
 11
5995.62948633044
 21
3948.573977269017
 31
0.0
  0
LINE
  5
656
330
21
100
AcDbEntity
  8
1
  6
Continuous
 62
     7
370
    18
100
AcDbLine
 10
5996.562091330439
 20
3947.78773726902
 30
0.0
 11
5996.098379330438
 21
3948.188722269017
 31
0.0
  0
LINE
  5
657
330
21
100
AcDbEntity
  8
1
  6
Continuous
 62
     7
370
    18
100
AcDbLine
 10
5997.020417330439
 20
3947.371198269019
 30
0.0
 11
5996.562091330439
 21
3947.78773726902
 31
0.0
  0
LINE
  5
658
330
21
100
AcDbEntity
  8
1
  6
Continuous
 62
     7
370
    18
100
AcDbLine
 10
5997.47315233044
 20
3946.939291269017
 30
0.0
 11
5997.020417330439
 21
3947.371198269019
 31
0.0
  0
LINE
  5
659
330
21
100
AcDbEntity
  8
1
  6
Continuous
 62
     7
370
    18
100
AcDbLine
 10
5997.920095330439
 20
3946.492208269017
 30
0.0
 11
5997.47315233044
 21
3946.939291269017
 31
0.0
  0
LINE
  5
65A
330
21
100
AcDbEntity
  8
1
  6
Continuous
 62
     7
370
    18
100
AcDbLine
 10
5998.361048330438
 20
3946.030148269019
 30
0.0
 11
5997.920095330439
 21
3946.492208269017
 31
0.0
  0
LINE
  5
65B
330
21
100
AcDbEntity
  8
1
  6
Continuous
 62
     7
370
    18
100
AcDbLine
 10
5998.795814330438
 20
3945.553316269019
 30
0.0
 11
5998.361048330438
 21
3946.030148269019
 31
0.0
  0
LINE
  5
65C
330
21
100
AcDbEntity
  8
1
  6
Continuous
 62
     7
370
    18
100
AcDbLine
 10
5999.224201330438
 20
3945.061924269015
 30
0.0
 11
5998.795814330438
 21
3945.553316269019
 31
0.0
  0
LINE
  5
65D
330
21
100
AcDbEntity
  8
1
  6
Continuous
 62
     7
370
    18
100
AcDbLine
 10
5999.646017330438
 20
3944.556191269017
 30
0.0
 11
5999.224201330438
 21
3945.061924269015
 31
0.0
  0
LINE
  5
65E
330
21
100
AcDbEntity
  8
1
  6
Continuous
 62
     7
370
    18
100
AcDbLine
 10
6000.061076330439
 20
3944.036341269017
 30
0.0
 11
5999.646017330438
 21
3944.556191269017
 31
0.0
  0
LINE
  5
65F
330
21
100
AcDbEntity
  8
1
  6
Continuous
 62
     7
370
    18
100
AcDbLine
 10
6000.469192330438
 20
3943.502606269016
 30
0.0
 11
6000.061076330439
 21
3944.036341269017
 31
0.0
  0
LINE
  5
660
330
21
100
AcDbEntity
  8
1
  6
Continuous
 62
     7
370
    18
100
AcDbLine
 10
6000.870185330439
 20
3942.955222269019
 30
0.0
 11
6000.469192330438
 21
3943.502606269016
 31
0.0
  0
LINE
  5
661
330
21
100
AcDbEntity
  8
1
  6
Continuous
 62
     7
370
    18
100
AcDbLine
 10
6001.263876330439
 20
3942.394433269015
 30
0.0
 11
6000.870185330439
 21
3942.955222269019
 31
0.0
  0
LINE
  5
662
330
21
100
AcDbEntity
  8
1
  6
Continuous
 62
     7
370
    18
100
AcDbLine
 10
6001.650090330439
 20
3941.820489269019
 30
0.0
 11
6001.263876330439
 21
3942.394433269015
 31
0.0
  0
LINE
  5
663
330
21
100
AcDbEntity
  8
1
  6
Continuous
 62
     7
370
    18
100
AcDbLine
 10
6002.028655330439
 20
3941.233645269018
 30
0.0
 11
6001.650090330439
 21
3941.820489269019
 31
0.0
  0
LINE
  5
664
330
21
100
AcDbEntity
  8
1
  6
Continuous
 62
     7
370
    18
100
AcDbLine
 10
6002.399403330439
 20
3940.634160269016
 30
0.0
 11
6002.028655330439
 21
3941.233645269018
 31
0.0
  0
LINE
  5
665
330
21
100
AcDbEntity
  8
1
  6
Continuous
 62
     7
370
    18
100
AcDbLine
 10
6002.76217033044
 20
3940.022303269019
 30
0.0
 11
6002.399403330439
 21
3940.634160269016
 31
0.0
  0
LINE
  5
666
330
21
100
AcDbEntity
  8
1
  6
Continuous
 62
     7
370
    18
100
AcDbLine
 10
6003.116794330439
 20
3939.398345269016
 30
0.0
 11
6002.76217033044
 21
3940.022303269019
 31
0.0
  0
LINE
  5
667
330
21
100
AcDbEntity
  8
1
  6
Continuous
 62
     7
370
    18
100
AcDbLine
 10
6003.463117330439
 20
3938.762563269018
 30
0.0
 11
6003.116794330439
 21
3939.398345269016
 31
0.0
  0
LINE
  5
668
330
21
100
AcDbEntity
  8
1
  6
Continuous
 62
     7
370
    18
100
AcDbLine
 10
6003.800985330439
 20
3938.11523926902
 30
0.0
 11
6003.463117330439
 21
3938.762563269018
 31
0.0
  0
LINE
  5
669
330
21
100
AcDbEntity
  8
1
  6
Continuous
 62
     7
370
    18
100
AcDbLine
 10
6004.130249330439
 20
3937.456663269018
 30
0.0
 11
6003.800985330439
 21
3938.11523926902
 31
0.0
  0
LINE
  5
66A
330
21
100
AcDbEntity
  8
1
  6
Continuous
 62
     7
370
    18
100
AcDbLine
 10
6004.450761330438
 20
3936.787125269017
 30
0.0
 11
6004.130249330439
 21
3937.456663269018
 31
0.0
  0
LINE
  5
66B
330
21
100
AcDbEntity
  8
1
  6
Continuous
 62
     7
370
    18
100
AcDbLine
 10
6004.762380330437
 20
3936.106925269018
 30
0.0
 11
6004.450761330438
 21
3936.787125269017
 31
0.0
  0
LINE
  5
66C
330
21
100
AcDbEntity
  8
1
  6
Continuous
 62
     7
370
    18
100
AcDbLine
 10
6005.06496733044
 20
3935.416365269019
 30
0.0
 11
6004.762380330437
 21
3936.106925269018
 31
0.0
  0
LINE
  5
66D
330
21
100
AcDbEntity
  8
1
  6
Continuous
 62
     7
370
    18
100
AcDbLine
 10
6005.358387330438
 20
3934.715750269017
 30
0.0
 11
6005.06496733044
 21
3935.416365269019
 31
0.0
  0
LINE
  5
66E
330
21
100
AcDbEntity
  8
1
  6
Continuous
 62
     7
370
    18
100
AcDbLine
 10
6005.642510330439
 20
3934.005394269018
 30
0.0
 11
6005.358387330438
 21
3934.715750269017
 31
0.0
  0
LINE
  5
66F
330
21
100
AcDbEntity
  8
1
  6
Continuous
 62
     7
370
    18
100
AcDbLine
 10
6005.917210330439
 20
3933.285611269017
 30
0.0
 11
6005.642510330439
 21
3934.005394269018
 31
0.0
  0
LINE
  5
670
330
21
100
AcDbEntity
  8
1
  6
Continuous
 62
     7
370
    18
100
AcDbLine
 10
6006.182364330438
 20
3932.556722269016
 30
0.0
 11
6005.917210330439
 21
3933.285611269017
 31
0.0
  0
LINE
  5
671
330
21
100
AcDbEntity
  8
1
  6
Continuous
 62
     7
370
    18
100
AcDbLine
 10
6006.437854330437
 20
3931.81905126902
 30
0.0
 11
6006.182364330438
 21
3932.556722269016
 31
0.0
  0
LINE
  5
672
330
21
100
AcDbEntity
  8
1
  6
Continuous
 62
     7
370
    18
100
AcDbLine
 10
6006.683568330438
 20
3931.072925269018
 30
0.0
 11
6006.437854330437
 21
3931.81905126902
 31
0.0
  0
LINE
  5
673
330
21
100
AcDbEntity
  8
1
  6
Continuous
 62
     7
370
    18
100
AcDbLine
 10
6006.919396330438
 20
3930.318676269017
 30
0.0
 11
6006.683568330438
 21
3931.072925269018
 31
0.0
  0
LINE
  5
674
330
21
100
AcDbEntity
  8
1
  6
Continuous
 62
     7
370
    18
100
AcDbLine
 10
6007.145232330438
 20
3929.556640269016
 30
0.0
 11
6006.919396330438
 21
3930.318676269017
 31
0.0
  0
LINE
  5
675
330
21
100
AcDbEntity
  8
1
  6
Continuous
 62
     7
370
    18
100
AcDbLine
 10
6007.360977330439
 20
3928.78715526902
 30
0.0
 11
6007.145232330438
 21
3929.556640269016
 31
0.0
  0
LINE
  5
676
330
21
100
AcDbEntity
  8
1
  6
Continuous
 62
     7
370
    18
100
AcDbLine
 10
6007.56653533044
 20
3928.010563269018
 30
0.0
 11
6007.360977330439
 21
3928.78715526902
 31
0.0
  0
LINE
  5
677
330
21
100
AcDbEntity
  8
1
  6
Continuous
 62
     7
370
    18
100
AcDbLine
 10
6007.761814330439
 20
3927.227211269019
 30
0.0
 11
6007.56653533044
 21
3928.010563269018
 31
0.0
  0
LINE
  5
678
330
21
100
AcDbEntity
  8
1
  6
Continuous
 62
     7
370
    18
100
AcDbLine
 10
6007.94672733044
 20
3926.437445269017
 30
0.0
 11
6007.761814330439
 21
3927.227211269019
 31
0.0
  0
LINE
  5
679
330
21
100
AcDbEntity
  8
1
  6
Continuous
 62
     7
370
    18
100
AcDbLine
 10
6008.121193330438
 20
3925.641616269018
 30
0.0
 11
6007.94672733044
 21
3926.437445269017
 31
0.0
  0
LINE
  5
67A
330
21
100
AcDbEntity
  8
1
  6
Continuous
 62
     7
370
    18
100
AcDbLine
 10
6008.285133330439
 20
3924.840080269016
 30
0.0
 11
6008.121193330438
 21
3925.641616269018
 31
0.0
  0
LINE
  5
67B
330
21
100
AcDbEntity
  8
1
  6
Continuous
 62
     7
370
    18
100
AcDbLine
 10
6008.438476330439
 20
3924.033191269017
 30
0.0
 11
6008.285133330439
 21
3924.840080269016
 31
0.0
  0
LINE
  5
67C
330
21
100
AcDbEntity
  8
1
  6
Continuous
 62
     7
370
    18
100
AcDbLine
 10
6008.58115133044
 20
3923.221310269019
 30
0.0
 11
6008.438476330439
 21
3924.033191269017
 31
0.0
  0
LINE
  5
67D
330
21
100
AcDbEntity
  8
1
  6
Continuous
 62
     7
370
    18
100
AcDbLine
 10
6008.713098330438
 20
3922.404796269017
 30
0.0
 11
6008.58115133044
 21
3923.221310269019
 31
0.0
  0
LINE
  5
67E
330
21
100
AcDbEntity
  8
1
  6
Continuous
 62
     7
370
    18
100
AcDbLine
 10
6008.834255330439
 20
3921.584012269017
 30
0.0
 11
6008.713098330438
 21
3922.404796269017
 31
0.0
  0
LINE
  5
67F
330
21
100
AcDbEntity
  8
1
  6
Continuous
 62
     7
370
    18
100
AcDbLine
 10
6008.944571330438
 20
3920.759324269017
 30
0.0
 11
6008.834255330439
 21
3921.584012269017
 31
0.0
  0
LINE
  5
680
330
21
100
AcDbEntity
  8
1
  6
Continuous
 62
     7
370
    18
100
AcDbLine
 10
6009.04399533044
 20
3919.931098269019
 30
0.0
 11
6008.944571330438
 21
3920.759324269017
 31
0.0
  0
LINE
  5
681
330
21
100
AcDbEntity
  8
1
  6
Continuous
 62
     7
370
    18
100
AcDbLine
 10
6009.132484330439
 20
3919.099702269017
 30
0.0
 11
6009.04399533044
 21
3919.931098269019
 31
0.0
  0
LINE
  5
682
330
21
100
AcDbEntity
  8
1
  6
Continuous
 62
     7
370
    18
100
AcDbLine
 10
6009.20999833044
 20
3918.265506269018
 30
0.0
 11
6009.132484330439
 21
3919.099702269017
 31
0.0
  0
LINE
  5
683
330
21
100
AcDbEntity
  8
1
  6
Continuous
 62
     7
370
    18
100
AcDbLine
 10
6009.276502330438
 20
3917.428881269017
 30
0.0
 11
6009.20999833044
 21
3918.265506269018
 31
0.0
  0
LINE
  5
684
330
21
100
AcDbEntity
  8
1
  6
Continuous
 62
     7
370
    18
100
AcDbLine
 10
6009.33196833044
 20
3916.59019826902
 30
0.0
 11
6009.276502330438
 21
3917.428881269017
 31
0.0
  0
LINE
  5
685
330
21
100
AcDbEntity
  8
1
  6
Continuous
 62
     7
370
    18
100
AcDbLine
 10
6009.376370330439
 20
3915.749831269019
 30
0.0
 11
6009.33196833044
 21
3916.59019826902
 31
0.0
  0
LINE
  5
686
330
21
100
AcDbEntity
  8
1
  6
Continuous
 62
     7
370
    18
100
AcDbLine
 10
6009.409689330437
 20
3914.908152269017
 30
0.0
 11
6009.376370330439
 21
3915.749831269019
 31
0.0
  0
LINE
  5
687
330
21
100
AcDbEntity
  8
1
  6
Continuous
 62
     7
370
    18
100
AcDbLine
 10
6009.431910330438
 20
3914.065537269016
 30
0.0
 11
6009.409689330437
 21
3914.908152269017
 31
0.0
  0
LINE
  5
688
330
21
100
AcDbEntity
  8
1
  6
Continuous
 62
     7
370
    18
100
AcDbLine
 10
6009.443023330437
 20
3913.222359269017
 30
0.0
 11
6009.431910330438
 21
3914.065537269016
 31
0.0
  0
LINE
  5
689
330
21
100
AcDbEntity
  8
1
  6
Continuous
 62
     7
370
    18
100
AcDbLine
 10
6009.443023330437
 20
3912.378995269017
 30
0.0
 11
6009.443023330437
 21
3913.222359269017
 31
0.0
  0
LINE
  5
68A
330
21
100
AcDbEntity
  8
1
  6
Continuous
 62
     7
370
    18
100
AcDbLine
 10
6009.431910330438
 20
3911.535817269018
 30
0.0
 11
6009.443023330437
 21
3912.378995269017
 31
0.0
  0
LINE
  5
68B
330
21
100
AcDbEntity
  8
1
  6
Continuous
 62
     7
370
    18
100
AcDbLine
 10
6009.409689330437
 20
3910.693202269016
 30
0.0
 11
6009.431910330438
 21
3911.535817269018
 31
0.0
  0
LINE
  5
68C
330
21
100
AcDbEntity
  8
1
  6
Continuous
 62
     7
370
    18
100
AcDbLine
 10
6009.376370330439
 20
3909.851523269019
 30
0.0
 11
6009.409689330437
 21
3910.693202269016
 31
0.0
  0
LINE
  5
68D
330
21
100
AcDbEntity
  8
1
  6
Continuous
 62
     7
370
    18
100
AcDbLine
 10
6009.33196833044
 20
3909.011156269018
 30
0.0
 11
6009.376370330439
 21
3909.851523269019
 31
0.0
  0
LINE
  5
68E
330
21
100
AcDbEntity
  8
1
  6
Continuous
 62
     7
370
    18
100
AcDbLine
 10
6009.276502330438
 20
3908.17247326902
 30
0.0
 11
6009.33196833044
 21
3909.011156269018
 31
0.0
  0
LINE
  5
68F
330
21
100
AcDbEntity
  8
1
  6
Continuous
 62
     7
370
    18
100
AcDbLine
 10
6009.20999833044
 20
3907.335848269017
 30
0.0
 11
6009.276502330438
 21
3908.17247326902
 31
0.0
  0
LINE
  5
690
330
21
100
AcDbEntity
  8
1
  6
Continuous
 62
     7
370
    18
100
AcDbLine
 10
6009.132484330439
 20
3906.501652269017
 30
0.0
 11
6009.20999833044
 21
3907.335848269017
 31
0.0
  0
LINE
  5
691
330
21
100
AcDbEntity
  8
1
  6
Continuous
 62
     7
370
    18
100
AcDbLine
 10
6009.04399533044
 20
3905.670256269019
 30
0.0
 11
6009.132484330439
 21
3906.501652269017
 31
0.0
  0
LINE
  5
692
330
21
100
AcDbEntity
  8
1
  6
Continuous
 62
     7
370
    18
100
AcDbLine
 10
6008.944571330438
 20
3904.842030269018
 30
0.0
 11
6009.04399533044
 21
3905.670256269019
 31
0.0
  0
LINE
  5
693
330
21
100
AcDbEntity
  8
1
  6
Continuous
 62
     7
370
    18
100
AcDbLine
 10
6008.834255330439
 20
3904.017342269017
 30
0.0
 11
6008.944571330438
 21
3904.842030269018
 31
0.0
  0
LINE
  5
694
330
21
100
AcDbEntity
  8
1
  6
Continuous
 62
     7
370
    18
100
AcDbLine
 10
6008.713098330438
 20
3903.196558269018
 30
0.0
 11
6008.834255330439
 21
3904.017342269017
 31
0.0
  0
LINE
  5
695
330
21
100
AcDbEntity
  8
1
  6
Continuous
 62
     7
370
    18
100
AcDbLine
 10
6008.58115133044
 20
3902.380044269019
 30
0.0
 11
6008.713098330438
 21
3903.196558269018
 31
0.0
  0
LINE
  5
696
330
21
100
AcDbEntity
  8
1
  6
Continuous
 62
     7
370
    18
100
AcDbLine
 10
6008.438476330439
 20
3901.568163269018
 30
0.0
 11
6008.58115133044
 21
3902.380044269019
 31
0.0
  0
LINE
  5
697
330
21
100
AcDbEntity
  8
1
  6
Continuous
 62
     7
370
    18
100
AcDbLine
 10
6008.285133330439
 20
3900.761274269018
 30
0.0
 11
6008.438476330439
 21
3901.568163269018
 31
0.0
  0
LINE
  5
698
330
21
100
AcDbEntity
  8
1
  6
Continuous
 62
     7
370
    18
100
AcDbLine
 10
6008.121193330438
 20
3899.959738269019
 30
0.0
 11
6008.285133330439
 21
3900.761274269018
 31
0.0
  0
LINE
  5
699
330
21
100
AcDbEntity
  8
1
  6
Continuous
 62
     7
370
    18
100
AcDbLine
 10
6007.94672733044
 20
3899.163909269017
 30
0.0
 11
6008.121193330438
 21
3899.959738269019
 31
0.0
  0
LINE
  5
69A
330
21
100
AcDbEntity
  8
1
  6
Continuous
 62
     7
370
    18
100
AcDbLine
 10
6007.761814330439
 20
3898.374143269019
 30
0.0
 11
6007.94672733044
 21
3899.163909269017
 31
0.0
  0
LINE
  5
69B
330
21
100
AcDbEntity
  8
1
  6
Continuous
 62
     7
370
    18
100
AcDbLine
 10
6007.56653533044
 20
3897.590791269016
 30
0.0
 11
6007.761814330439
 21
3898.374143269019
 31
0.0
  0
LINE
  5
69C
330
21
100
AcDbEntity
  8
1
  6
Continuous
 62
     7
370
    18
100
AcDbLine
 10
6007.360977330439
 20
3896.814199269018
 30
0.0
 11
6007.56653533044
 21
3897.590791269016
 31
0.0
  0
LINE
  5
69D
330
21
100
AcDbEntity
  8
1
  6
Continuous
 62
     7
370
    18
100
AcDbLine
 10
6007.145232330438
 20
3896.044714269017
 30
0.0
 11
6007.360977330439
 21
3896.814199269018
 31
0.0
  0
LINE
  5
69E
330
21
100
AcDbEntity
  8
1
  6
Continuous
 62
     7
370
    18
100
AcDbLine
 10
6006.919396330438
 20
3895.282678269018
 30
0.0
 11
6007.145232330438
 21
3896.044714269017
 31
0.0
  0
LINE
  5
69F
330
21
100
AcDbEntity
  8
1
  6
Continuous
 62
     7
370
    18
100
AcDbLine
 10
6006.683568330438
 20
3894.52842926902
 30
0.0
 11
6006.919396330438
 21
3895.282678269018
 31
0.0
  0
LINE
  5
6A0
330
21
100
AcDbEntity
  8
1
  6
Continuous
 62
     7
370
    18
100
AcDbLine
 10
6006.437854330437
 20
3893.782303269018
 30
0.0
 11
6006.683568330438
 21
3894.52842926902
 31
0.0
  0
LINE
  5
6A1
330
21
100
AcDbEntity
  8
1
  6
Continuous
 62
     7
370
    18
100
AcDbLine
 10
6006.182364330438
 20
3893.044632269019
 30
0.0
 11
6006.437854330437
 21
3893.782303269018
 31
0.0
  0
LINE
  5
6A2
330
21
100
AcDbEntity
  8
1
  6
Continuous
 62
     7
370
    18
100
AcDbLine
 10
6005.917210330439
 20
3892.315743269017
 30
0.0
 11
6006.182364330438
 21
3893.044632269019
 31
0.0
  0
LINE
  5
6A3
330
21
100
AcDbEntity
  8
1
  6
Continuous
 62
     7
370
    18
100
AcDbLine
 10
6005.642510330439
 20
3891.59596026902
 30
0.0
 11
6005.917210330439
 21
3892.315743269017
 31
0.0
  0
LINE
  5
6A4
330
21
100
AcDbEntity
  8
1
  6
Continuous
 62
     7
370
    18
100
AcDbLine
 10
6005.358387330438
 20
3890.885604269017
 30
0.0
 11
6005.642510330439
 21
3891.59596026902
 31
0.0
  0
LINE
  5
6A5
330
21
100
AcDbEntity
  8
1
  6
Continuous
 62
     7
370
    18
100
AcDbLine
 10
6005.06496733044
 20
3890.184989269019
 30
0.0
 11
6005.358387330438
 21
3890.885604269017
 31
0.0
  0
LINE
  5
6A6
330
21
100
AcDbEntity
  8
1
  6
Continuous
 62
     7
370
    18
100
AcDbLine
 10
6004.762380330437
 20
3889.49442926902
 30
0.0
 11
6005.06496733044
 21
3890.184989269019
 31
0.0
  0
LINE
  5
6A7
330
21
100
AcDbEntity
  8
1
  6
Continuous
 62
     7
370
    18
100
AcDbLine
 10
6004.450761330438
 20
3888.814229269018
 30
0.0
 11
6004.762380330437
 21
3889.49442926902
 31
0.0
  0
LINE
  5
6A8
330
21
100
AcDbEntity
  8
1
  6
Continuous
 62
     7
370
    18
100
AcDbLine
 10
6004.130249330439
 20
3888.144691269015
 30
0.0
 11
6004.450761330438
 21
3888.814229269018
 31
0.0
  0
LINE
  5
6A9
330
21
100
AcDbEntity
  8
1
  6
Continuous
 62
     7
370
    18
100
AcDbLine
 10
6003.800985330439
 20
3887.486115269017
 30
0.0
 11
6004.130249330439
 21
3888.144691269015
 31
0.0
  0
LINE
  5
6AA
330
21
100
AcDbEntity
  8
1
  6
Continuous
 62
     7
370
    18
100
AcDbLine
 10
6003.463117330439
 20
3886.838791269016
 30
0.0
 11
6003.800985330439
 21
3887.486115269017
 31
0.0
  0
LINE
  5
6AB
330
21
100
AcDbEntity
  8
1
  6
Continuous
 62
     7
370
    18
100
AcDbLine
 10
6003.116794330439
 20
3886.203009269019
 30
0.0
 11
6003.463117330439
 21
3886.838791269016
 31
0.0
  0
LINE
  5
6AC
330
21
100
AcDbEntity
  8
1
  6
Continuous
 62
     7
370
    18
100
AcDbLine
 10
6002.76217033044
 20
3885.579051269019
 30
0.0
 11
6003.116794330439
 21
3886.203009269019
 31
0.0
  0
LINE
  5
6AD
330
21
100
AcDbEntity
  8
1
  6
Continuous
 62
     7
370
    18
100
AcDbLine
 10
6002.399403330439
 20
3884.967194269019
 30
0.0
 11
6002.76217033044
 21
3885.579051269019
 31
0.0
  0
LINE
  5
6AE
330
21
100
AcDbEntity
  8
1
  6
Continuous
 62
     7
370
    18
100
AcDbLine
 10
6002.028655330439
 20
3884.367709269019
 30
0.0
 11
6002.399403330439
 21
3884.967194269019
 31
0.0
  0
LINE
  5
6AF
330
21
100
AcDbEntity
  8
1
  6
Continuous
 62
     7
370
    18
100
AcDbLine
 10
6001.650090330439
 20
3883.780865269019
 30
0.0
 11
6002.028655330439
 21
3884.367709269019
 31
0.0
  0
LINE
  5
6B0
330
21
100
AcDbEntity
  8
1
  6
Continuous
 62
     7
370
    18
100
AcDbLine
 10
6001.263876330439
 20
3883.206921269019
 30
0.0
 11
6001.650090330439
 21
3883.780865269019
 31
0.0
  0
LINE
  5
6B1
330
21
100
AcDbEntity
  8
1
  6
Continuous
 62
     7
370
    18
100
AcDbLine
 10
6000.870185330439
 20
3882.646132269016
 30
0.0
 11
6001.263876330439
 21
3883.206921269019
 31
0.0
  0
LINE
  5
6B2
330
21
100
AcDbEntity
  8
1
  6
Continuous
 62
     7
370
    18
100
AcDbLine
 10
6000.469192330438
 20
3882.098748269018
 30
0.0
 11
6000.870185330439
 21
3882.646132269016
 31
0.0
  0
LINE
  5
6B3
330
21
100
AcDbEntity
  8
1
  6
Continuous
 62
     7
370
    18
100
AcDbLine
 10
6000.061076330439
 20
3881.565013269018
 30
0.0
 11
6000.469192330438
 21
3882.098748269018
 31
0.0
  0
LINE
  5
6B4
330
21
100
AcDbEntity
  8
1
  6
Continuous
 62
     7
370
    18
100
AcDbLine
 10
5999.646017330438
 20
3881.045163269017
 30
0.0
 11
6000.061076330439
 21
3881.565013269018
 31
0.0
  0
LINE
  5
6B5
330
21
100
AcDbEntity
  8
1
  6
Continuous
 62
     7
370
    18
100
AcDbLine
 10
5999.224201330438
 20
3880.539430269018
 30
0.0
 11
5999.646017330438
 21
3881.045163269017
 31
0.0
  0
LINE
  5
6B6
330
21
100
AcDbEntity
  8
1
  6
Continuous
 62
     7
370
    18
100
AcDbLine
 10
5998.795814330438
 20
3880.048038269018
 30
0.0
 11
5999.224201330438
 21
3880.539430269018
 31
0.0
  0
LINE
  5
6B7
330
21
100
AcDbEntity
  8
1
  6
Continuous
 62
     7
370
    18
100
AcDbLine
 10
5998.361048330438
 20
3879.571206269019
 30
0.0
 11
5998.795814330438
 21
3880.048038269018
 31
0.0
  0
LINE
  5
6B8
330
21
100
AcDbEntity
  8
1
  6
Continuous
 62
     7
370
    18
100
AcDbLine
 10
5997.920095330439
 20
3879.109146269017
 30
0.0
 11
5998.361048330438
 21
3879.571206269019
 31
0.0
  0
LINE
  5
6B9
330
21
100
AcDbEntity
  8
1
  6
Continuous
 62
     7
370
    18
100
AcDbLine
 10
5997.47315233044
 20
3878.662063269017
 30
0.0
 11
5997.920095330439
 21
3879.109146269017
 31
0.0
  0
LINE
  5
6BA
330
21
100
AcDbEntity
  8
1
  6
Continuous
 62
     7
370
    18
100
AcDbLine
 10
5997.020417330439
 20
3878.230156269019
 30
0.0
 11
5997.47315233044
 21
3878.662063269017
 31
0.0
  0
LINE
  5
6BB
330
21
100
AcDbEntity
  8
1
  6
Continuous
 62
     7
370
    18
100
AcDbLine
 10
5996.562091330439
 20
3877.813617269018
 30
0.0
 11
5997.020417330439
 21
3878.230156269019
 31
0.0
  0
LINE
  5
6BC
330
21
100
AcDbEntity
  8
1
  6
Continuous
 62
     7
370
    18
100
AcDbLine
 10
5996.098379330438
 20
3877.412632269017
 30
0.0
 11
5996.562091330439
 21
3877.813617269018
 31
0.0
  0
LINE
  5
6BD
330
21
100
AcDbEntity
  8
1
  6
Continuous
 62
     7
370
    18
100
AcDbLine
 10
5995.62948633044
 20
3877.027377269019
 30
0.0
 11
5996.098379330438
 21
3877.412632269017
 31
0.0
  0
LINE
  5
6BE
330
21
100
AcDbEntity
  8
1
  6
Continuous
 62
     7
370
    18
100
AcDbLine
 10
5995.155620330439
 20
3876.658026269018
 30
0.0
 11
5995.62948633044
 21
3877.027377269019
 31
0.0
  0
LINE
  5
6BF
330
21
100
AcDbEntity
  8
1
  6
Continuous
 62
     7
370
    18
100
AcDbLine
 10
5994.676993330439
 20
3876.304741269018
 30
0.0
 11
5995.155620330439
 21
3876.658026269018
 31
0.0
  0
LINE
  5
6C0
330
21
100
AcDbEntity
  8
1
  6
Continuous
 62
     7
370
    18
100
AcDbLine
 10
5994.193818330439
 20
3875.967680269016
 30
0.0
 11
5994.676993330439
 21
3876.304741269018
 31
0.0
  0
LINE
  5
6C1
330
21
100
AcDbEntity
  8
1
  6
Continuous
 62
     7
370
    18
100
AcDbLine
 10
5993.706308330438
 20
3875.646993269016
 30
0.0
 11
5994.193818330439
 21
3875.967680269016
 31
0.0
  0
LINE
  5
6C2
330
21
100
AcDbEntity
  8
1
  6
Continuous
 62
     7
370
    18
100
AcDbLine
 10
5993.214681330439
 20
3875.342822269021
 30
0.0
 11
5993.706308330438
 21
3875.646993269016
 31
0.0
  0
LINE
  5
6C3
330
21
100
AcDbEntity
  8
1
  6
Continuous
 62
     7
370
    18
100
AcDbLine
 10
5992.719155330438
 20
3875.055303269018
 30
0.0
 11
5993.214681330439
 21
3875.342822269021
 31
0.0
  0
LINE
  5
6C4
330
21
100
AcDbEntity
  8
1
  6
Continuous
 62
     7
370
    18
100
AcDbLine
 10
5992.219951330438
 20
3874.784563269015
 30
0.0
 11
5992.719155330438
 21
3875.055303269018
 31
0.0
  0
LINE
  5
6C5
330
21
100
AcDbEntity
  8
1
  6
Continuous
 62
     7
370
    18
100
AcDbLine
 10
5991.717290330438
 20
3874.530723269018
 30
0.0
 11
5992.219951330438
 21
3874.784563269015
 31
0.0
  0
LINE
  5
6C6
330
21
100
AcDbEntity
  8
1
  6
Continuous
 62
     7
370
    18
100
AcDbLine
 10
5991.211397330438
 20
3874.293895269017
 30
0.0
 11
5991.717290330438
 21
3874.530723269018
 31
0.0
  0
LINE
  5
6C7
330
21
100
AcDbEntity
  8
1
  6
Continuous
 62
     7
370
    18
100
AcDbLine
 10
5990.702495330439
 20
3874.074185269019
 30
0.0
 11
5991.211397330438
 21
3874.293895269017
 31
0.0
  0
LINE
  5
6C8
330
21
100
AcDbEntity
  8
1
  6
Continuous
 62
     7
370
    18
100
AcDbLine
 10
5990.190811330438
 20
3873.871690269018
 30
0.0
 11
5990.702495330439
 21
3874.074185269019
 31
0.0
  0
LINE
  5
6C9
330
21
100
AcDbEntity
  8
1
  6
Continuous
 62
     7
370
    18
100
AcDbLine
 10
5989.676572330438
 20
3873.686502269018
 30
0.0
 11
5990.190811330438
 21
3873.871690269018
 31
0.0
  0
LINE
  5
6CA
330
21
100
AcDbEntity
  8
1
  6
Continuous
 62
     7
370
    18
100
AcDbLine
 10
5989.160008330438
 20
3873.518700269018
 30
0.0
 11
5989.676572330438
 21
3873.686502269018
 31
0.0
  0
LINE
  5
6CB
330
21
100
AcDbEntity
  8
1
  6
Continuous
 62
     7
370
    18
100
AcDbLine
 10
5988.641347330439
 20
3873.368362269019
 30
0.0
 11
5989.160008330438
 21
3873.518700269018
 31
0.0
  0
LINE
  5
6CC
330
21
100
AcDbEntity
  8
1
  6
Continuous
 62
     7
370
    18
100
AcDbLine
 10
5988.120821330438
 20
3873.23555226902
 30
0.0
 11
5988.641347330439
 21
3873.368362269019
 31
0.0
  0
LINE
  5
6CD
330
21
100
AcDbEntity
  8
1
  6
Continuous
 62
     7
370
    18
100
AcDbLine
 10
5987.598660330439
 20
3873.12033126902
 30
0.0
 11
5988.120821330438
 21
3873.23555226902
 31
0.0
  0
LINE
  5
6CE
330
21
100
AcDbEntity
  8
1
  6
Continuous
 62
     7
370
    18
100
AcDbLine
 10
5987.075097330438
 20
3873.022750269018
 30
0.0
 11
5987.598660330439
 21
3873.12033126902
 31
0.0
  0
LINE
  5
6CF
330
21
100
AcDbEntity
  8
1
  6
Continuous
 62
     7
370
    18
100
AcDbLine
 10
5986.550365330439
 20
3872.942851269018
 30
0.0
 11
5987.075097330438
 21
3873.022750269018
 31
0.0
  0
LINE
  5
6D0
330
21
100
AcDbEntity
  8
1
  6
Continuous
 62
     7
370
    18
100
AcDbLine
 10
5986.024696330439
 20
3872.880671269017
 30
0.0
 11
5986.550365330439
 21
3872.942851269018
 31
0.0
  0
LINE
  5
6D1
330
21
100
AcDbEntity
  8
1
  6
Continuous
 62
     7
370
    18
100
AcDbLine
 10
5985.498325330438
 20
3872.836236269017
 30
0.0
 11
5986.024696330439
 21
3872.880671269017
 31
0.0
  0
LINE
  5
6D2
330
21
100
AcDbEntity
  8
1
  6
Continuous
 62
     7
370
    18
100
AcDbLine
 10
5984.97148633044
 20
3872.809568269018
 30
0.0
 11
5985.498325330438
 21
3872.836236269017
 31
0.0
  0
LINE
  5
6D3
330
21
100
AcDbEntity
  8
1
  6
Continuous
 62
     7
370
    18
100
AcDbLine
 10
5984.444412330439
 20
3872.800677269017
 30
0.0
 11
5984.97148633044
 21
3872.809568269018
 31
0.0
  0
LINE
  5
6D4
330
21
100
AcDbEntity
  8
1
  6
Continuous
 62
     7
370
    18
100
AcDbLine
 10
4033.917338330438
 20
3872.809568269018
 30
0.0
 11
4034.444412330438
 21
3872.800677269017
 31
0.0
  0
LINE
  5
6D5
330
21
100
AcDbEntity
  8
1
  6
Continuous
 62
     7
370
    18
100
AcDbLine
 10
4033.390499330439
 20
3872.836236269017
 30
0.0
 11
4033.917338330438
 21
3872.809568269018
 31
0.0
  0
LINE
  5
6D6
330
21
100
AcDbEntity
  8
1
  6
Continuous
 62
     7
370
    18
100
AcDbLine
 10
4032.864128330438
 20
3872.880671269017
 30
0.0
 11
4033.390499330439
 21
3872.836236269017
 31
0.0
  0
LINE
  5
6D7
330
21
100
AcDbEntity
  8
1
  6
Continuous
 62
     7
370
    18
100
AcDbLine
 10
4032.33845933044
 20
3872.942851269018
 30
0.0
 11
4032.864128330438
 21
3872.880671269017
 31
0.0
  0
LINE
  5
6D8
330
21
100
AcDbEntity
  8
1
  6
Continuous
 62
     7
370
    18
100
AcDbLine
 10
4031.813727330438
 20
3873.022750269018
 30
0.0
 11
4032.33845933044
 21
3872.942851269018
 31
0.0
  0
LINE
  5
6D9
330
21
100
AcDbEntity
  8
1
  6
Continuous
 62
     7
370
    18
100
AcDbLine
 10
4031.290164330439
 20
3873.12033126902
 30
0.0
 11
4031.813727330438
 21
3873.022750269018
 31
0.0
  0
LINE
  5
6DA
330
21
100
AcDbEntity
  8
1
  6
Continuous
 62
     7
370
    18
100
AcDbLine
 10
4030.768003330439
 20
3873.23555226902
 30
0.0
 11
4031.290164330439
 21
3873.12033126902
 31
0.0
  0
LINE
  5
6DB
330
21
100
AcDbEntity
  8
1
  6
Continuous
 62
     7
370
    18
100
AcDbLine
 10
4030.247477330438
 20
3873.368362269019
 30
0.0
 11
4030.768003330439
 21
3873.23555226902
 31
0.0
  0
LINE
  5
6DC
330
21
100
AcDbEntity
  8
1
  6
Continuous
 62
     7
370
    18
100
AcDbLine
 10
4029.72881633044
 20
3873.518700269018
 30
0.0
 11
4030.247477330438
 21
3873.368362269019
 31
0.0
  0
LINE
  5
6DD
330
21
100
AcDbEntity
  8
1
  6
Continuous
 62
     7
370
    18
100
AcDbLine
 10
4029.212252330438
 20
3873.686502269018
 30
0.0
 11
4029.72881633044
 21
3873.518700269018
 31
0.0
  0
LINE
  5
6DE
330
21
100
AcDbEntity
  8
1
  6
Continuous
 62
     7
370
    18
100
AcDbLine
 10
4028.698013330439
 20
3873.871690269018
 30
0.0
 11
4029.212252330438
 21
3873.686502269018
 31
0.0
  0
LINE
  5
6DF
330
21
100
AcDbEntity
  8
1
  6
Continuous
 62
     7
370
    18
100
AcDbLine
 10
4028.186329330437
 20
3874.074185269019
 30
0.0
 11
4028.698013330439
 21
3873.871690269018
 31
0.0
  0
LINE
  5
6E0
330
21
100
AcDbEntity
  8
1
  6
Continuous
 62
     7
370
    18
100
AcDbLine
 10
4027.67742733044
 20
3874.293895269017
 30
0.0
 11
4028.186329330437
 21
3874.074185269019
 31
0.0
  0
LINE
  5
6E1
330
21
100
AcDbEntity
  8
1
  6
Continuous
 62
     7
370
    18
100
AcDbLine
 10
4027.171534330438
 20
3874.530723269018
 30
0.0
 11
4027.67742733044
 21
3874.293895269017
 31
0.0
  0
LINE
  5
6E2
330
21
100
AcDbEntity
  8
1
  6
Continuous
 62
     7
370
    18
100
AcDbLine
 10
4026.668873330438
 20
3874.784563269015
 30
0.0
 11
4027.171534330438
 21
3874.530723269018
 31
0.0
  0
LINE
  5
6E3
330
21
100
AcDbEntity
  8
1
  6
Continuous
 62
     7
370
    18
100
AcDbLine
 10
4026.169669330438
 20
3875.055303269018
 30
0.0
 11
4026.668873330438
 21
3874.784563269015
 31
0.0
  0
LINE
  5
6E4
330
21
100
AcDbEntity
  8
1
  6
Continuous
 62
     7
370
    18
100
AcDbLine
 10
4025.674143330437
 20
3875.342822269021
 30
0.0
 11
4026.169669330438
 21
3875.055303269018
 31
0.0
  0
LINE
  5
6E5
330
21
100
AcDbEntity
  8
1
  6
Continuous
 62
     7
370
    18
100
AcDbLine
 10
4025.182516330437
 20
3875.646993269016
 30
0.0
 11
4025.674143330437
 21
3875.342822269021
 31
0.0
  0
LINE
  5
6E6
330
21
100
AcDbEntity
  8
1
  6
Continuous
 62
     7
370
    18
100
AcDbLine
 10
4024.695006330439
 20
3875.967680269016
 30
0.0
 11
4025.182516330437
 21
3875.646993269016
 31
0.0
  0
LINE
  5
6E7
330
21
100
AcDbEntity
  8
1
  6
Continuous
 62
     7
370
    18
100
AcDbLine
 10
4024.211831330438
 20
3876.304741269018
 30
0.0
 11
4024.695006330439
 21
3875.967680269016
 31
0.0
  0
LINE
  5
6E8
330
21
100
AcDbEntity
  8
1
  6
Continuous
 62
     7
370
    18
100
AcDbLine
 10
4023.733204330437
 20
3876.658026269018
 30
0.0
 11
4024.211831330438
 21
3876.304741269018
 31
0.0
  0
LINE
  5
6E9
330
21
100
AcDbEntity
  8
1
  6
Continuous
 62
     7
370
    18
100
AcDbLine
 10
4023.259338330439
 20
3877.027377269019
 30
0.0
 11
4023.733204330437
 21
3876.658026269018
 31
0.0
  0
LINE
  5
6EA
330
21
100
AcDbEntity
  8
1
  6
Continuous
 62
     7
370
    18
100
AcDbLine
 10
4022.790445330439
 20
3877.412632269017
 30
0.0
 11
4023.259338330439
 21
3877.027377269019
 31
0.0
  0
LINE
  5
6EB
330
21
100
AcDbEntity
  8
1
  6
Continuous
 62
     7
370
    18
100
AcDbLine
 10
4022.326733330439
 20
3877.813617269018
 30
0.0
 11
4022.790445330439
 21
3877.412632269017
 31
0.0
  0
LINE
  5
6EC
330
21
100
AcDbEntity
  8
1
  6
Continuous
 62
     7
370
    18
100
AcDbLine
 10
4021.86840733044
 20
3878.230156269019
 30
0.0
 11
4022.326733330439
 21
3877.813617269018
 31
0.0
  0
LINE
  5
6ED
330
21
100
AcDbEntity
  8
1
  6
Continuous
 62
     7
370
    18
100
AcDbLine
 10
4021.415672330438
 20
3878.662063269017
 30
0.0
 11
4021.86840733044
 21
3878.230156269019
 31
0.0
  0
LINE
  5
6EE
330
21
100
AcDbEntity
  8
1
  6
Continuous
 62
     7
370
    18
100
AcDbLine
 10
4020.968729330437
 20
3879.109146269017
 30
0.0
 11
4021.415672330438
 21
3878.662063269017
 31
0.0
  0
LINE
  5
6EF
330
21
100
AcDbEntity
  8
1
  6
Continuous
 62
     7
370
    18
100
AcDbLine
 10
4020.527776330438
 20
3879.571206269019
 30
0.0
 11
4020.968729330437
 21
3879.109146269017
 31
0.0
  0
LINE
  5
6F0
330
21
100
AcDbEntity
  8
1
  6
Continuous
 62
     7
370
    18
100
AcDbLine
 10
4020.093010330437
 20
3880.048038269018
 30
0.0
 11
4020.527776330438
 21
3879.571206269019
 31
0.0
  0
LINE
  5
6F1
330
21
100
AcDbEntity
  8
1
  6
Continuous
 62
     7
370
    18
100
AcDbLine
 10
4019.664623330438
 20
3880.539430269018
 30
0.0
 11
4020.093010330437
 21
3880.048038269018
 31
0.0
  0
LINE
  5
6F2
330
21
100
AcDbEntity
  8
1
  6
Continuous
 62
     7
370
    18
100
AcDbLine
 10
4019.24280733044
 20
3881.045163269017
 30
0.0
 11
4019.664623330438
 21
3880.539430269018
 31
0.0
  0
LINE
  5
6F3
330
21
100
AcDbEntity
  8
1
  6
Continuous
 62
     7
370
    18
100
AcDbLine
 10
4018.827748330437
 20
3881.565013269018
 30
0.0
 11
4019.24280733044
 21
3881.045163269017
 31
0.0
  0
LINE
  5
6F4
330
21
100
AcDbEntity
  8
1
  6
Continuous
 62
     7
370
    18
100
AcDbLine
 10
4018.419632330438
 20
3882.098748269018
 30
0.0
 11
4018.827748330437
 21
3881.565013269018
 31
0.0
  0
LINE
  5
6F5
330
21
100
AcDbEntity
  8
1
  6
Continuous
 62
     7
370
    18
100
AcDbLine
 10
4018.018639330439
 20
3882.646132269016
 30
0.0
 11
4018.419632330438
 21
3882.098748269018
 31
0.0
  0
LINE
  5
6F6
330
21
100
AcDbEntity
  8
1
  6
Continuous
 62
     7
370
    18
100
AcDbLine
 10
4017.624948330438
 20
3883.206921269019
 30
0.0
 11
4018.018639330439
 21
3882.646132269016
 31
0.0
  0
LINE
  5
6F7
330
21
100
AcDbEntity
  8
1
  6
Continuous
 62
     7
370
    18
100
AcDbLine
 10
4017.238734330439
 20
3883.780865269019
 30
0.0
 11
4017.624948330438
 21
3883.206921269019
 31
0.0
  0
LINE
  5
6F8
330
21
100
AcDbEntity
  8
1
  6
Continuous
 62
     7
370
    18
100
AcDbLine
 10
4016.860169330437
 20
3884.367709269019
 30
0.0
 11
4017.238734330439
 21
3883.780865269019
 31
0.0
  0
LINE
  5
6F9
330
21
100
AcDbEntity
  8
1
  6
Continuous
 62
     7
370
    18
100
AcDbLine
 10
4016.489421330439
 20
3884.967194269019
 30
0.0
 11
4016.860169330437
 21
3884.367709269019
 31
0.0
  0
LINE
  5
6FA
330
21
100
AcDbEntity
  8
1
  6
Continuous
 62
     7
370
    18
100
AcDbLine
 10
4016.126654330439
 20
3885.579051269019
 30
0.0
 11
4016.489421330439
 21
3884.967194269019
 31
0.0
  0
LINE
  5
6FB
330
21
100
AcDbEntity
  8
1
  6
Continuous
 62
     7
370
    18
100
AcDbLine
 10
4015.772030330437
 20
3886.203009269019
 30
0.0
 11
4016.126654330439
 21
3885.579051269019
 31
0.0
  0
LINE
  5
6FC
330
21
100
AcDbEntity
  8
1
  6
Continuous
 62
     7
370
    18
100
AcDbLine
 10
4015.42570733044
 20
3886.838791269016
 30
0.0
 11
4015.772030330437
 21
3886.203009269019
 31
0.0
  0
LINE
  5
6FD
330
21
100
AcDbEntity
  8
1
  6
Continuous
 62
     7
370
    18
100
AcDbLine
 10
4015.08783933044
 20
3887.486115269017
 30
0.0
 11
4015.42570733044
 21
3886.838791269016
 31
0.0
  0
LINE
  5
6FE
330
21
100
AcDbEntity
  8
1
  6
Continuous
 62
     7
370
    18
100
AcDbLine
 10
4014.758575330438
 20
3888.144691269015
 30
0.0
 11
4015.08783933044
 21
3887.486115269017
 31
0.0
  0
LINE
  5
6FF
330
21
100
AcDbEntity
  8
1
  6
Continuous
 62
     7
370
    18
100
AcDbLine
 10
4014.438063330439
 20
3888.814229269018
 30
0.0
 11
4014.758575330438
 21
3888.144691269015
 31
0.0
  0
LINE
  5
700
330
21
100
AcDbEntity
  8
1
  6
Continuous
 62
     7
370
    18
100
AcDbLine
 10
4014.126444330439
 20
3889.49442926902
 30
0.0
 11
4014.438063330439
 21
3888.814229269018
 31
0.0
  0
LINE
  5
701
330
21
100
AcDbEntity
  8
1
  6
Continuous
 62
     7
370
    18
100
AcDbLine
 10
4013.823857330439
 20
3890.184989269019
 30
0.0
 11
4014.126444330439
 21
3889.49442926902
 31
0.0
  0
LINE
  5
702
330
21
100
AcDbEntity
  8
1
  6
Continuous
 62
     7
370
    18
100
AcDbLine
 10
4013.530437330438
 20
3890.885604269017
 30
0.0
 11
4013.823857330439
 21
3890.184989269019
 31
0.0
  0
LINE
  5
703
330
21
100
AcDbEntity
  8
1
  6
Continuous
 62
     7
370
    18
100
AcDbLine
 10
4013.246314330437
 20
3891.59596026902
 30
0.0
 11
4013.530437330438
 21
3890.885604269017
 31
0.0
  0
LINE
  5
704
330
21
100
AcDbEntity
  8
1
  6
Continuous
 62
     7
370
    18
100
AcDbLine
 10
4012.971614330439
 20
3892.315743269017
 30
0.0
 11
4013.246314330437
 21
3891.59596026902
 31
0.0
  0
LINE
  5
705
330
21
100
AcDbEntity
  8
1
  6
Continuous
 62
     7
370
    18
100
AcDbLine
 10
4012.706460330439
 20
3893.044632269019
 30
0.0
 11
4012.971614330439
 21
3892.315743269017
 31
0.0
  0
LINE
  5
706
330
21
100
AcDbEntity
  8
1
  6
Continuous
 62
     7
370
    18
100
AcDbLine
 10
4012.450970330439
 20
3893.782303269018
 30
0.0
 11
4012.706460330439
 21
3893.044632269019
 31
0.0
  0
LINE
  5
707
330
21
100
AcDbEntity
  8
1
  6
Continuous
 62
     7
370
    18
100
AcDbLine
 10
4012.205256330438
 20
3894.52842926902
 30
0.0
 11
4012.450970330439
 21
3893.782303269018
 31
0.0
  0
LINE
  5
708
330
21
100
AcDbEntity
  8
1
  6
Continuous
 62
     7
370
    18
100
AcDbLine
 10
4011.969428330438
 20
3895.282678269018
 30
0.0
 11
4012.205256330438
 21
3894.52842926902
 31
0.0
  0
LINE
  5
709
330
21
100
AcDbEntity
  8
1
  6
Continuous
 62
     7
370
    18
100
AcDbLine
 10
4011.74359233044
 20
3896.044714269017
 30
0.0
 11
4011.969428330438
 21
3895.282678269018
 31
0.0
  0
LINE
  5
70A
330
21
100
AcDbEntity
  8
1
  6
Continuous
 62
     7
370
    18
100
AcDbLine
 10
4011.527847330438
 20
3896.814199269018
 30
0.0
 11
4011.74359233044
 21
3896.044714269017
 31
0.0
  0
LINE
  5
70B
330
21
100
AcDbEntity
  8
1
  6
Continuous
 62
     7
370
    18
100
AcDbLine
 10
4011.322289330439
 20
3897.590791269016
 30
0.0
 11
4011.527847330438
 21
3896.814199269018
 31
0.0
  0
LINE
  5
70C
330
21
100
AcDbEntity
  8
1
  6
Continuous
 62
     7
370
    18
100
AcDbLine
 10
4011.127010330437
 20
3898.374143269019
 30
0.0
 11
4011.322289330439
 21
3897.590791269016
 31
0.0
  0
LINE
  5
70D
330
21
100
AcDbEntity
  8
1
  6
Continuous
 62
     7
370
    18
100
AcDbLine
 10
4010.942097330438
 20
3899.163909269017
 30
0.0
 11
4011.127010330437
 21
3898.374143269019
 31
0.0
  0
LINE
  5
70E
330
21
100
AcDbEntity
  8
1
  6
Continuous
 62
     7
370
    18
100
AcDbLine
 10
4010.76763133044
 20
3899.959738269019
 30
0.0
 11
4010.942097330438
 21
3899.163909269017
 31
0.0
  0
LINE
  5
70F
330
21
100
AcDbEntity
  8
1
  6
Continuous
 62
     7
370
    18
100
AcDbLine
 10
4010.603691330437
 20
3900.761274269018
 30
0.0
 11
4010.76763133044
 21
3899.959738269019
 31
0.0
  0
LINE
  5
710
330
21
100
AcDbEntity
  8
1
  6
Continuous
 62
     7
370
    18
100
AcDbLine
 10
4010.450348330439
 20
3901.568163269018
 30
0.0
 11
4010.603691330437
 21
3900.761274269018
 31
0.0
  0
LINE
  5
711
330
21
100
AcDbEntity
  8
1
  6
Continuous
 62
     7
370
    18
100
AcDbLine
 10
4010.307673330439
 20
3902.380044269019
 30
0.0
 11
4010.450348330439
 21
3901.568163269018
 31
0.0
  0
LINE
  5
712
330
21
100
AcDbEntity
  8
1
  6
Continuous
 62
     7
370
    18
100
AcDbLine
 10
4010.175726330439
 20
3903.196558269018
 30
0.0
 11
4010.307673330439
 21
3902.380044269019
 31
0.0
  0
LINE
  5
713
330
21
100
AcDbEntity
  8
1
  6
Continuous
 62
     7
370
    18
100
AcDbLine
 10
4010.054569330438
 20
3904.017342269017
 30
0.0
 11
4010.175726330439
 21
3903.196558269018
 31
0.0
  0
LINE
  5
714
330
21
100
AcDbEntity
  8
1
  6
Continuous
 62
     7
370
    18
100
AcDbLine
 10
4009.944253330439
 20
3904.842030269018
 30
0.0
 11
4010.054569330438
 21
3904.017342269017
 31
0.0
  0
LINE
  5
715
330
21
100
AcDbEntity
  8
1
  6
Continuous
 62
     7
370
    18
100
AcDbLine
 10
4009.844829330439
 20
3905.670256269019
 30
0.0
 11
4009.944253330439
 21
3904.842030269018
 31
0.0
  0
LINE
  5
716
330
21
100
AcDbEntity
  8
1
  6
Continuous
 62
     7
370
    18
100
AcDbLine
 10
4009.756340330437
 20
3906.501652269017
 30
0.0
 11
4009.844829330439
 21
3905.670256269019
 31
0.0
  0
LINE
  5
717
330
21
100
AcDbEntity
  8
1
  6
Continuous
 62
     7
370
    18
100
AcDbLine
 10
4009.678826330438
 20
3907.335848269017
 30
0.0
 11
4009.756340330437
 21
3906.501652269017
 31
0.0
  0
LINE
  5
718
330
21
100
AcDbEntity
  8
1
  6
Continuous
 62
     7
370
    18
100
AcDbLine
 10
4009.612322330439
 20
3908.17247326902
 30
0.0
 11
4009.678826330438
 21
3907.335848269017
 31
0.0
  0
LINE
  5
719
330
21
100
AcDbEntity
  8
1
  6
Continuous
 62
     7
370
    18
100
AcDbLine
 10
4009.556856330439
 20
3909.011156269018
 30
0.0
 11
4009.612322330439
 21
3908.17247326902
 31
0.0
  0
LINE
  5
71A
330
21
100
AcDbEntity
  8
1
  6
Continuous
 62
     7
370
    18
100
AcDbLine
 10
4009.512454330437
 20
3909.851523269019
 30
0.0
 11
4009.556856330439
 21
3909.011156269018
 31
0.0
  0
LINE
  5
71B
330
21
100
AcDbEntity
  8
1
  6
Continuous
 62
     7
370
    18
100
AcDbLine
 10
4009.479135330439
 20
3910.693202269016
 30
0.0
 11
4009.512454330437
 21
3909.851523269019
 31
0.0
  0
LINE
  5
71C
330
21
100
AcDbEntity
  8
1
  6
Continuous
 62
     7
370
    18
100
AcDbLine
 10
4009.456914330439
 20
3911.535817269018
 30
0.0
 11
4009.479135330439
 21
3910.693202269016
 31
0.0
  0
LINE
  5
71D
330
21
100
AcDbEntity
  8
1
  6
Continuous
 62
     7
370
    18
100
AcDbLine
 10
4009.444412330438
 20
3912.800677269017
 30
0.0
 11
4009.456914330439
 21
3911.535817269018
 31
0.0
  0
LINE
  5
71E
330
21
100
AcDbEntity
  8
1
  6
Continuous
 62
     7
370
    18
100
AcDbLine
 10
4009.445801330439
 20
3913.222359269017
 30
0.0
 11
4009.444412330438
 21
3912.800677269017
 31
0.0
  0
LINE
  5
71F
330
21
100
AcDbEntity
  8
1
  6
Continuous
 62
     7
370
    18
100
AcDbLine
 10
4009.456914330439
 20
3914.065537269016
 30
0.0
 11
4009.445801330439
 21
3913.222359269017
 31
0.0
  0
LINE
  5
720
330
21
100
AcDbEntity
  8
1
  6
Continuous
 62
     7
370
    18
100
AcDbLine
 10
4009.479135330439
 20
3914.908152269017
 30
0.0
 11
4009.456914330439
 21
3914.065537269016
 31
0.0
  0
LINE
  5
721
330
21
100
AcDbEntity
  8
1
  6
Continuous
 62
     7
370
    18
100
AcDbLine
 10
4009.512454330437
 20
3915.749831269019
 30
0.0
 11
4009.479135330439
 21
3914.908152269017
 31
0.0
  0
LINE
  5
722
330
21
100
AcDbEntity
  8
1
  6
Continuous
 62
     7
370
    18
100
AcDbLine
 10
4009.556856330439
 20
3916.59019826902
 30
0.0
 11
4009.512454330437
 21
3915.749831269019
 31
0.0
  0
LINE
  5
723
330
21
100
AcDbEntity
  8
1
  6
Continuous
 62
     7
370
    18
100
AcDbLine
 10
4009.612322330439
 20
3917.428881269017
 30
0.0
 11
4009.556856330439
 21
3916.59019826902
 31
0.0
  0
LINE
  5
724
330
21
100
AcDbEntity
  8
1
  6
Continuous
 62
     7
370
    18
100
AcDbLine
 10
4009.678826330438
 20
3918.265506269018
 30
0.0
 11
4009.612322330439
 21
3917.428881269017
 31
0.0
  0
LINE
  5
725
330
21
100
AcDbEntity
  8
1
  6
Continuous
 62
     7
370
    18
100
AcDbLine
 10
4009.756340330437
 20
3919.099702269017
 30
0.0
 11
4009.678826330438
 21
3918.265506269018
 31
0.0
  0
LINE
  5
726
330
21
100
AcDbEntity
  8
1
  6
Continuous
 62
     7
370
    18
100
AcDbLine
 10
4009.844829330439
 20
3919.931098269019
 30
0.0
 11
4009.756340330437
 21
3919.099702269017
 31
0.0
  0
LINE
  5
727
330
21
100
AcDbEntity
  8
1
  6
Continuous
 62
     7
370
    18
100
AcDbLine
 10
4009.944253330439
 20
3920.759324269017
 30
0.0
 11
4009.844829330439
 21
3919.931098269019
 31
0.0
  0
LINE
  5
728
330
21
100
AcDbEntity
  8
1
  6
Continuous
 62
     7
370
    18
100
AcDbLine
 10
4010.054569330438
 20
3921.584012269017
 30
0.0
 11
4009.944253330439
 21
3920.759324269017
 31
0.0
  0
LINE
  5
729
330
21
100
AcDbEntity
  8
1
  6
Continuous
 62
     7
370
    18
100
AcDbLine
 10
4010.175726330439
 20
3922.404796269017
 30
0.0
 11
4010.054569330438
 21
3921.584012269017
 31
0.0
  0
LINE
  5
72A
330
21
100
AcDbEntity
  8
1
  6
Continuous
 62
     7
370
    18
100
AcDbLine
 10
4010.307673330439
 20
3923.221310269019
 30
0.0
 11
4010.175726330439
 21
3922.404796269017
 31
0.0
  0
LINE
  5
72B
330
21
100
AcDbEntity
  8
1
  6
Continuous
 62
     7
370
    18
100
AcDbLine
 10
4010.450348330439
 20
3924.033191269017
 30
0.0
 11
4010.307673330439
 21
3923.221310269019
 31
0.0
  0
LINE
  5
72C
330
21
100
AcDbEntity
  8
1
  6
Continuous
 62
     7
370
    18
100
AcDbLine
 10
4010.603691330437
 20
3924.840080269016
 30
0.0
 11
4010.450348330439
 21
3924.033191269017
 31
0.0
  0
LINE
  5
72D
330
21
100
AcDbEntity
  8
1
  6
Continuous
 62
     7
370
    18
100
AcDbLine
 10
4010.76763133044
 20
3925.641616269018
 30
0.0
 11
4010.603691330437
 21
3924.840080269016
 31
0.0
  0
LINE
  5
72E
330
21
100
AcDbEntity
  8
1
  6
Continuous
 62
     7
370
    18
100
AcDbLine
 10
4010.942097330438
 20
3926.437445269017
 30
0.0
 11
4010.76763133044
 21
3925.641616269018
 31
0.0
  0
LINE
  5
72F
330
21
100
AcDbEntity
  8
1
  6
Continuous
 62
     7
370
    18
100
AcDbLine
 10
4011.127010330437
 20
3927.227211269019
 30
0.0
 11
4010.942097330438
 21
3926.437445269017
 31
0.0
  0
LINE
  5
730
330
21
100
AcDbEntity
  8
1
  6
Continuous
 62
     7
370
    18
100
AcDbLine
 10
4011.322289330439
 20
3928.010563269018
 30
0.0
 11
4011.127010330437
 21
3927.227211269019
 31
0.0
  0
LINE
  5
731
330
21
100
AcDbEntity
  8
1
  6
Continuous
 62
     7
370
    18
100
AcDbLine
 10
4011.527847330438
 20
3928.78715526902
 30
0.0
 11
4011.322289330439
 21
3928.010563269018
 31
0.0
  0
LINE
  5
732
330
21
100
AcDbEntity
  8
1
  6
Continuous
 62
     7
370
    18
100
AcDbLine
 10
4011.74359233044
 20
3929.556640269016
 30
0.0
 11
4011.527847330438
 21
3928.78715526902
 31
0.0
  0
LINE
  5
733
330
21
100
AcDbEntity
  8
1
  6
Continuous
 62
     7
370
    18
100
AcDbLine
 10
4011.969428330438
 20
3930.318676269017
 30
0.0
 11
4011.74359233044
 21
3929.556640269016
 31
0.0
  0
LINE
  5
734
330
21
100
AcDbEntity
  8
1
  6
Continuous
 62
     7
370
    18
100
AcDbLine
 10
4012.205256330438
 20
3931.072925269018
 30
0.0
 11
4011.969428330438
 21
3930.318676269017
 31
0.0
  0
LINE
  5
735
330
21
100
AcDbEntity
  8
1
  6
Continuous
 62
     7
370
    18
100
AcDbLine
 10
4012.450970330439
 20
3931.81905126902
 30
0.0
 11
4012.205256330438
 21
3931.072925269018
 31
0.0
  0
LINE
  5
736
330
21
100
AcDbEntity
  8
1
  6
Continuous
 62
     7
370
    18
100
AcDbLine
 10
4012.706460330439
 20
3932.556722269016
 30
0.0
 11
4012.450970330439
 21
3931.81905126902
 31
0.0
  0
LINE
  5
737
330
21
100
AcDbEntity
  8
1
  6
Continuous
 62
     7
370
    18
100
AcDbLine
 10
4012.971614330439
 20
3933.285611269017
 30
0.0
 11
4012.706460330439
 21
3932.556722269016
 31
0.0
  0
LINE
  5
738
330
21
100
AcDbEntity
  8
1
  6
Continuous
 62
     7
370
    18
100
AcDbLine
 10
4013.246314330437
 20
3934.005394269018
 30
0.0
 11
4012.971614330439
 21
3933.285611269017
 31
0.0
  0
LINE
  5
739
330
21
100
AcDbEntity
  8
1
  6
Continuous
 62
     7
370
    18
100
AcDbLine
 10
4013.530437330438
 20
3934.715750269017
 30
0.0
 11
4013.246314330437
 21
3934.005394269018
 31
0.0
  0
LINE
  5
73A
330
21
100
AcDbEntity
  8
1
  6
Continuous
 62
     7
370
    18
100
AcDbLine
 10
4013.823857330439
 20
3935.416365269019
 30
0.0
 11
4013.530437330438
 21
3934.715750269017
 31
0.0
  0
LINE
  5
73B
330
21
100
AcDbEntity
  8
1
  6
Continuous
 62
     7
370
    18
100
AcDbLine
 10
4014.126444330439
 20
3936.106925269018
 30
0.0
 11
4013.823857330439
 21
3935.416365269019
 31
0.0
  0
LINE
  5
73C
330
21
100
AcDbEntity
  8
1
  6
Continuous
 62
     7
370
    18
100
AcDbLine
 10
4014.438063330439
 20
3936.787125269017
 30
0.0
 11
4014.126444330439
 21
3936.106925269018
 31
0.0
  0
LINE
  5
73D
330
21
100
AcDbEntity
  8
1
  6
Continuous
 62
     7
370
    18
100
AcDbLine
 10
4014.758575330438
 20
3937.456663269018
 30
0.0
 11
4014.438063330439
 21
3936.787125269017
 31
0.0
  0
LINE
  5
73E
330
21
100
AcDbEntity
  8
1
  6
Continuous
 62
     7
370
    18
100
AcDbLine
 10
4015.08783933044
 20
3938.11523926902
 30
0.0
 11
4014.758575330438
 21
3937.456663269018
 31
0.0
  0
LINE
  5
73F
330
21
100
AcDbEntity
  8
1
  6
Continuous
 62
     7
370
    18
100
AcDbLine
 10
4015.42570733044
 20
3938.762563269018
 30
0.0
 11
4015.08783933044
 21
3938.11523926902
 31
0.0
  0
LINE
  5
740
330
21
100
AcDbEntity
  8
1
  6
Continuous
 62
     7
370
    18
100
AcDbLine
 10
4015.772030330437
 20
3939.398345269016
 30
0.0
 11
4015.42570733044
 21
3938.762563269018
 31
0.0
  0
LINE
  5
741
330
21
100
AcDbEntity
  8
1
  6
Continuous
 62
     7
370
    18
100
AcDbLine
 10
4016.126654330439
 20
3940.022303269019
 30
0.0
 11
4015.772030330437
 21
3939.398345269016
 31
0.0
  0
LINE
  5
742
330
21
100
AcDbEntity
  8
1
  6
Continuous
 62
     7
370
    18
100
AcDbLine
 10
4016.489421330439
 20
3940.634160269016
 30
0.0
 11
4016.126654330439
 21
3940.022303269019
 31
0.0
  0
LINE
  5
743
330
21
100
AcDbEntity
  8
1
  6
Continuous
 62
     7
370
    18
100
AcDbLine
 10
4016.860169330437
 20
3941.233645269018
 30
0.0
 11
4016.489421330439
 21
3940.634160269016
 31
0.0
  0
LINE
  5
744
330
21
100
AcDbEntity
  8
1
  6
Continuous
 62
     7
370
    18
100
AcDbLine
 10
4017.238734330439
 20
3941.820489269019
 30
0.0
 11
4016.860169330437
 21
3941.233645269018
 31
0.0
  0
LINE
  5
745
330
21
100
AcDbEntity
  8
1
  6
Continuous
 62
     7
370
    18
100
AcDbLine
 10
4017.624948330438
 20
3942.394433269015
 30
0.0
 11
4017.238734330439
 21
3941.820489269019
 31
0.0
  0
LINE
  5
746
330
21
100
AcDbEntity
  8
1
  6
Continuous
 62
     7
370
    18
100
AcDbLine
 10
4018.018639330439
 20
3942.955222269019
 30
0.0
 11
4017.624948330438
 21
3942.394433269015
 31
0.0
  0
LINE
  5
747
330
21
100
AcDbEntity
  8
1
  6
Continuous
 62
     7
370
    18
100
AcDbLine
 10
4018.419632330438
 20
3943.502606269016
 30
0.0
 11
4018.018639330439
 21
3942.955222269019
 31
0.0
  0
LINE
  5
748
330
21
100
AcDbEntity
  8
1
  6
Continuous
 62
     7
370
    18
100
AcDbLine
 10
4018.827748330437
 20
3944.036341269017
 30
0.0
 11
4018.419632330438
 21
3943.502606269016
 31
0.0
  0
LINE
  5
749
330
21
100
AcDbEntity
  8
1
  6
Continuous
 62
     7
370
    18
100
AcDbLine
 10
4019.24280733044
 20
3944.556191269017
 30
0.0
 11
4018.827748330437
 21
3944.036341269017
 31
0.0
  0
LINE
  5
74A
330
21
100
AcDbEntity
  8
1
  6
Continuous
 62
     7
370
    18
100
AcDbLine
 10
4019.664623330438
 20
3945.061924269015
 30
0.0
 11
4019.24280733044
 21
3944.556191269017
 31
0.0
  0
LINE
  5
74B
330
21
100
AcDbEntity
  8
1
  6
Continuous
 62
     7
370
    18
100
AcDbLine
 10
4020.093010330437
 20
3945.553316269019
 30
0.0
 11
4019.664623330438
 21
3945.061924269015
 31
0.0
  0
LINE
  5
74C
330
21
100
AcDbEntity
  8
1
  6
Continuous
 62
     7
370
    18
100
AcDbLine
 10
4020.527776330438
 20
3946.030148269019
 30
0.0
 11
4020.093010330437
 21
3945.553316269019
 31
0.0
  0
LINE
  5
74D
330
21
100
AcDbEntity
  8
1
  6
Continuous
 62
     7
370
    18
100
AcDbLine
 10
4020.968729330437
 20
3946.492208269017
 30
0.0
 11
4020.527776330438
 21
3946.030148269019
 31
0.0
  0
LINE
  5
74E
330
21
100
AcDbEntity
  8
1
  6
Continuous
 62
     7
370
    18
100
AcDbLine
 10
4021.415672330438
 20
3946.939291269017
 30
0.0
 11
4020.968729330437
 21
3946.492208269017
 31
0.0
  0
LINE
  5
74F
330
21
100
AcDbEntity
  8
1
  6
Continuous
 62
     7
370
    18
100
AcDbLine
 10
4021.86840733044
 20
3947.371198269019
 30
0.0
 11
4021.415672330438
 21
3946.939291269017
 31
0.0
  0
LINE
  5
750
330
21
100
AcDbEntity
  8
1
  6
Continuous
 62
     7
370
    18
100
AcDbLine
 10
4022.326733330439
 20
3947.78773726902
 30
0.0
 11
4021.86840733044
 21
3947.371198269019
 31
0.0
  0
LINE
  5
751
330
21
100
AcDbEntity
  8
1
  6
Continuous
 62
     7
370
    18
100
AcDbLine
 10
4022.790445330439
 20
3948.188722269017
 30
0.0
 11
4022.326733330439
 21
3947.78773726902
 31
0.0
  0
LINE
  5
752
330
21
100
AcDbEntity
  8
1
  6
Continuous
 62
     7
370
    18
100
AcDbLine
 10
4023.259338330439
 20
3948.573977269017
 30
0.0
 11
4022.790445330439
 21
3948.188722269017
 31
0.0
  0
LINE
  5
753
330
21
100
AcDbEntity
  8
1
  6
Continuous
 62
     7
370
    18
100
AcDbLine
 10
4023.733204330437
 20
3948.943328269019
 30
0.0
 11
4023.259338330439
 21
3948.573977269017
 31
0.0
  0
LINE
  5
754
330
21
100
AcDbEntity
  8
1
  6
Continuous
 62
     7
370
    18
100
AcDbLine
 10
4024.211831330438
 20
3949.29661326902
 30
0.0
 11
4023.733204330437
 21
3948.943328269019
 31
0.0
  0
LINE
  5
755
330
21
100
AcDbEntity
  8
1
  6
Continuous
 62
     7
370
    18
100
AcDbLine
 10
4024.695006330439
 20
3949.633674269018
 30
0.0
 11
4024.211831330438
 21
3949.29661326902
 31
0.0
  0
LINE
  5
756
330
21
100
AcDbEntity
  8
1
  6
Continuous
 62
     7
370
    18
100
AcDbLine
 10
4025.182516330437
 20
3949.954361269018
 30
0.0
 11
4024.695006330439
 21
3949.633674269018
 31
0.0
  0
LINE
  5
757
330
21
100
AcDbEntity
  8
1
  6
Continuous
 62
     7
370
    18
100
AcDbLine
 10
4025.674143330437
 20
3950.258532269018
 30
0.0
 11
4025.182516330437
 21
3949.954361269018
 31
0.0
  0
LINE
  5
758
330
21
100
AcDbEntity
  8
1
  6
Continuous
 62
     7
370
    18
100
AcDbLine
 10
4026.169669330438
 20
3950.546051269019
 30
0.0
 11
4025.674143330437
 21
3950.258532269018
 31
0.0
  0
LINE
  5
759
330
21
100
AcDbEntity
  8
1
  6
Continuous
 62
     7
370
    18
100
AcDbLine
 10
4026.668873330438
 20
3950.816791269019
 30
0.0
 11
4026.169669330438
 21
3950.546051269019
 31
0.0
  0
LINE
  5
75A
330
21
100
AcDbEntity
  8
1
  6
Continuous
 62
     7
370
    18
100
AcDbLine
 10
4027.171534330438
 20
3951.070631269016
 30
0.0
 11
4026.668873330438
 21
3950.816791269019
 31
0.0
  0
LINE
  5
75B
330
21
100
AcDbEntity
  8
1
  6
Continuous
 62
     7
370
    18
100
AcDbLine
 10
4027.67742733044
 20
3951.307459269017
 30
0.0
 11
4027.171534330438
 21
3951.070631269016
 31
0.0
  0
LINE
  5
75C
330
21
100
AcDbEntity
  8
1
  6
Continuous
 62
     7
370
    18
100
AcDbLine
 10
4028.186329330437
 20
3951.527169269019
 30
0.0
 11
4027.67742733044
 21
3951.307459269017
 31
0.0
  0
LINE
  5
75D
330
21
100
AcDbEntity
  8
1
  6
Continuous
 62
     7
370
    18
100
AcDbLine
 10
4028.698013330439
 20
3951.72966426902
 30
0.0
 11
4028.186329330437
 21
3951.527169269019
 31
0.0
  0
LINE
  5
75E
330
21
100
AcDbEntity
  8
1
  6
Continuous
 62
     7
370
    18
100
AcDbLine
 10
4029.212252330438
 20
3951.914852269016
 30
0.0
 11
4028.698013330439
 21
3951.72966426902
 31
0.0
  0
LINE
  5
75F
330
21
100
AcDbEntity
  8
1
  6
Continuous
 62
     7
370
    18
100
AcDbLine
 10
4029.72881633044
 20
3952.08265426902
 30
0.0
 11
4029.212252330438
 21
3951.914852269016
 31
0.0
  0
LINE
  5
760
330
21
100
AcDbEntity
  8
1
  6
Continuous
 62
     7
370
    18
100
AcDbLine
 10
4030.247477330438
 20
3952.232992269019
 30
0.0
 11
4029.72881633044
 21
3952.08265426902
 31
0.0
  0
LINE
  5
761
330
21
100
AcDbEntity
  8
1
  6
Continuous
 62
     7
370
    18
100
AcDbLine
 10
4030.768003330439
 20
3952.365802269018
 30
0.0
 11
4030.247477330438
 21
3952.232992269019
 31
0.0
  0
LINE
  5
762
330
21
100
AcDbEntity
  8
1
  6
Continuous
 62
     7
370
    18
100
AcDbLine
 10
4031.290164330439
 20
3952.481023269018
 30
0.0
 11
4030.768003330439
 21
3952.365802269018
 31
0.0
  0
LINE
  5
763
330
21
100
AcDbEntity
  8
1
  6
Continuous
 62
     7
370
    18
100
AcDbLine
 10
4031.813727330438
 20
3952.578604269016
 30
0.0
 11
4031.290164330439
 21
3952.481023269018
 31
0.0
  0
LINE
  5
764
330
21
100
AcDbEntity
  8
1
  6
Continuous
 62
     7
370
    18
100
AcDbLine
 10
4032.33845933044
 20
3952.65850326902
 30
0.0
 11
4031.813727330438
 21
3952.578604269016
 31
0.0
  0
LINE
  5
765
330
21
100
AcDbEntity
  8
1
  6
Continuous
 62
     7
370
    18
100
AcDbLine
 10
4032.864128330438
 20
3952.720683269017
 30
0.0
 11
4032.33845933044
 21
3952.65850326902
 31
0.0
  0
LINE
  5
766
330
21
100
AcDbEntity
  8
1
  6
Continuous
 62
     7
370
    18
100
AcDbLine
 10
4033.390499330439
 20
3952.765118269017
 30
0.0
 11
4032.864128330438
 21
3952.720683269017
 31
0.0
  0
LINE
  5
767
330
21
100
AcDbEntity
  8
1
  6
Continuous
 62
     7
370
    18
100
AcDbLine
 10
4033.917338330438
 20
3952.791786269016
 30
0.0
 11
4033.390499330439
 21
3952.765118269017
 31
0.0
  0
LINE
  5
768
330
21
100
AcDbEntity
  8
1
  6
Continuous
 62
     7
370
    18
100
AcDbLine
 10
4034.444412330438
 20
3952.800677269017
 30
0.0
 11
4033.917338330438
 21
3952.791786269016
 31
0.0
  0
LINE
  5
769
330
21
100
AcDbEntity
  8
1
  6
Continuous
 62
     7
370
    18
100
AcDbLine
 10
4046.944412330439
 20
3472.800677269017
 30
0.0
 11
5971.944412330438
 21
3472.800677269017
 31
0.0
  0
CIRCLE
  5
76A
330
21
100
AcDbEntity
  8
1
  6
Continuous
 62
     7
370
    18
100
AcDbCircle
 10
5511.944412330438
 20
3695.800677269017
 30
0.0
 40
8.0
  0
CIRCLE
  5
76B
330
21
100
AcDbEntity
  8
1
  6
Continuous
 62
     7
370
    18
100
AcDbCircle
 10
4506.944412330438
 20
3695.800677269017
 30
0.0
 40
8.0
  0
LINE
  5
76C
330
21
100
AcDbEntity
  8
1
  6
Continuous
 62
     7
370
    18
100
AcDbLine
 10
5984.444412330439
 20
3872.800677269017
 30
0.0
 11
5971.944412330438
 21
3472.800677269017
 31
0.0
  0
LINE
  5
76D
330
21
100
AcDbEntity
  8
1
  6
Continuous
 62
     7
370
    18
100
AcDbLine
 10
4034.444412330438
 20
3872.800677269017
 30
0.0
 11
4046.944412330439
 21
3472.800677269017
 31
0.0
  0
LINE
  5
76E
330
21
100
AcDbEntity
  8
1
  6
Continuous
 62
     7
370
    18
100
AcDbLine
 10
4189.444412330438
 20
3862.800677269021
 30
0.0
 11
4189.444412330438
 21
3491.800677269004
 31
0.0
  0
LINE
  5
76F
330
21
100
AcDbEntity
  8
1
  6
Continuous
 62
     7
370
    18
100
AcDbLine
 10
5959.444412330438
 20
4272.800677269017
 30
0.0
 11
5984.444412330439
 21
3952.800677269017
 31
0.0
  0
LINE
  5
770
330
21
100
AcDbEntity
  8
1
  6
Continuous
 62
     7
370
    18
100
AcDbLine
 10
4059.444412330438
 20
4272.800677269017
 30
0.0
 11
5959.444412330438
 21
4272.800677269017
 31
0.0
  0
LINE
  5
771
330
21
100
AcDbEntity
  8
1
  6
Continuous
 62
     7
370
    18
100
AcDbLine
 10
4059.444412330438
 20
4272.800677269017
 30
0.0
 11
4034.444412330438
 21
3952.800677269017
 31
0.0
  0
CIRCLE
  5
772
330
21
100
AcDbEntity
  8
1
  6
Continuous
 62
     7
370
    18
100
AcDbCircle
 10
5509.444412330438
 20
4142.800677269017
 30
0.0
 40
8.0
  0
CIRCLE
  5
773
330
21
100
AcDbEntity
  8
1
  6
Continuous
 62
     7
370
    18
100
AcDbCircle
 10
4509.444412330438
 20
4142.800677269017
 30
0.0
 40
8.0
  0
LINE
  5
774
330
21
100
AcDbEntity
  8
1
  6
Continuous
 62
     7
370
    18
100
AcDbLine
 10
4109.44441233044
 20
3862.800677269021
 30
0.0
 11
4109.444412330439
 21
3491.800677269004
 31
0.0
  0
LINE
  5
775
330
21
100
AcDbEntity
  8
1
  6
Continuous
 62
     7
370
    18
100
AcDbLine
 10
4034.444412330438
 20
3872.800677269017
 30
0.0
 11
5984.444412330439
 21
3872.800677269017
 31
0.0
  0
TEXT
  5
776
330
21
100
AcDbEntity
  8
1
  6
Continuous
 62
     7
370
    18
100
AcDbText
 10
3259.97675633044
 20
5242.261886948137
 30
0.0
 40
80.0
  1
プレキャストガードレール基礎製品図(その１)PGⅡ
 41
0.7
  7
MSゴシック
 11
3259.97675633044
 21
5227.642597608035
 31
0.0
100
AcDbText
 73
     1
  0
LINE
  5
777
330
21
100
AcDbEntity
  8
1
  6
Continuous
 62
     7
370
    18
100
AcDbLine
 10
3255.712209330439
 20
5212.987674608037
 30
0.0
 11
5093.018084330439
 21
5212.987674608037
 31
0.0
  0
LINE
  5
778
330
21
100
AcDbEntity
  8
1
  6
Continuous
 62
     7
370
    18
100
AcDbLine
 10
3255.712209330439
 20
5202.987674608038
 30
0.0
 11
5092.375271330439
 21
5202.987674608038
 31
0.0
  0
TEXT
  5
779
330
21
100
AcDbEntity
  8
1
  6
Continuous
 62
     7
370
    18
100
AcDbText
 10
4938.975144330438
 20
5137.420202445599
 30
0.0
 40
50.0
  1
S=1:20
 41
0.5357140000000001
 11
4938.975144330438
 21
5128.283146608035
 31
0.0
100
AcDbText
 73
     1
  0
CIRCLE
  5
77A
330
21
100
AcDbEntity
  8
1
  6
Continuous
 62
     7
370
    18
100
AcDbCircle
 10
5009.444412330438
 20
4027.800677269016
 30
0.0
 40
92.5
  0
LINE
  5
77B
330
21
100
AcDbEntity
  8
1
  6
Continuous
 62
     7
370
    18
100
AcDbLine
 10
5009.444412330438
 20
4027.800677269016
 30
0.0
 11
5009.444412330438
 21
4007.800677269016
 31
0.0
  0
LINE
  5
77C
330
21
100
AcDbEntity
  8
1
  6
Continuous
 62
     7
370
    18
100
AcDbLine
 10
5009.444412330438
 20
4027.800677269016
 30
0.0
 11
5009.444412330438
 21
4047.800677269017
 31
0.0
  0
LINE
  5
77D
330
21
100
AcDbEntity
  8
1
  6
Continuous
 62
     7
370
    18
100
AcDbLine
 10
5009.444412330438
 20
4027.800677269016
 30
0.0
 11
5029.444412330438
 21
4027.800677269016
 31
0.0
  0
LINE
  5
77E
330
21
100
AcDbEntity
  8
1
  6
Continuous
 62
     7
370
    18
100
AcDbLine
 10
5009.444412330438
 20
4027.800677269016
 30
0.0
 11
4989.444412330438
 21
4027.800677269016
 31
0.0
  0
LINE
  5
77F
330
21
100
AcDbEntity
  8
1
  6
Continuous
 62
     7
370
    18
100
AcDbLine
 10
7566.321992330438
 20
49.99997560803604
 30
0.0
 11
7566.321992330438
 21
247.4711716080346
 31
0.0
  0
TEXT
  5
780
330
21
100
AcDbEntity
  8
1
  6
Continuous
 62
     7
370
    18
100
AcDbText
 10
7136.252053330437
 20
116.4024100496588
 30
0.0
 40
98.735598
  1
製品番号
 41
0.833333
 11
7136.252053330437
 21
98.35935660803443
 31
0.0
100
AcDbText
 73
     1
  0
LINE
  5
781
330
21
100
AcDbEntity
  8
1
  6
Continuous
 62
     7
370
    18
100
AcDbLine
 10
7072.644002330439
 20
247.4711716080346
 30
0.0
 11
7072.644002330439
 21
49.99997560803604
 31
0.0
  0
LINE
  5
782
330
21
100
AcDbEntity
  8
1
  6
Continuous
 62
     7
370
    18
100
AcDbLine
 10
8059.999982330438
 20
49.99997560803604
 30
0.0
 11
8059.999982330438
 21
247.4711716080346
 31
0.0
  0
LINE
  5
783
330
21
100
AcDbEntity
  8
1
  6
Continuous
 62
     7
370
    18
100
AcDbLine
 10
8059.999982330438
 20
247.4711716080346
 30
0.0
 11
7072.644002330439
 21
247.4711716080346
 31
0.0
  0
LINE
  5
784
330
21
100
AcDbEntity
  8
1
  6
Continuous
 62
     7
370
    18
100
AcDbLine
 10
8059.999982330438
 20
49.99997560803604
 30
0.0
 11
7072.644002330439
 21
49.99997560803604
 31
0.0
  0
TEXT
  5
785
330
21
100
AcDbEntity
  8
1
  6
Continuous
 62
     7
370
    18
100
AcDbText
 10
7674.67005233044
 20
115.5916740496593
 30
0.0
 40
98.735598
  1
BC-20
 41
0.5
 11
7674.67005233044
 21
97.54862060803498
 31
0.0
100
AcDbText
 73
     1
  0
LINE
  5
786
330
21
100
AcDbEntity
  8
1
  6
Continuous
 62
     7
370
    18
100
AcDbLine
 10
1654.745616330438
 20
3642.800677269021
 30
0.0
 11
1654.745616330438
 21
3612.800677269021
 31
0.0
  0
LINE
  5
787
330
21
100
AcDbEntity
  8
1
  6
Continuous
 62
     7
370
    18
100
AcDbLine
 10
1660.745616330437
 20
3252.800677269017
 30
0.0
 11
1654.745616330438
 21
3246.800677269017
 31
0.0
  0
LINE
  5
788
330
21
100
AcDbEntity
  8
1
  6
Continuous
 62
     7
370
    18
100
AcDbLine
 10
1654.745616330438
 20
3558.800677269021
 30
0.0
 11
1660.745616330437
 21
3552.800677269021
 31
0.0
  0
LINE
  5
789
330
21
100
AcDbEntity
  8
1
  6
Continuous
 62
     7
370
    18
100
AcDbLine
 10
1660.745616330437
 20
3552.800677269021
 30
0.0
 11
1660.745616330437
 21
3252.800677269017
 31
0.0
  0
LINE
  5
78A
330
21
100
AcDbEntity
  8
1
  6
Continuous
 62
     7
370
    18
100
AcDbLine
 10
2425.745616330452
 20
3452.800677269016
 30
0.0
 11
2435.745616330452
 21
3442.800677269019
 31
0.0
  0
ARC
  5
78B
330
21
100
AcDbEntity
  8
1
  6
Continuous
 62
     7
370
    18
100
AcDbCircle
 10
1983.933304203567
 20
3643.61338773476
 30
0.0
 40
9.193029252386285
100
AcDbArc
 50
87.97522770086308
 51
181.9532419690608
1001
GENIUS_GENODEF_13
1002
{
1000
HIER
1070
     0
1002
}
1002
{
1000
MANEDIT
1070
     0
1002
}
1002
{
1000
NOSEL
1070
     0
1002
}
1002
{
1000
BEHIND
1070
     0
1002
}
1002
{
1000
OTHER
1070
     0
1002
}
1002
{
1000
REACTOR
1002
}
1001
GENIUS_GENOBJ-N-FIL_13
1002
{
1000
OWNER
1000
GEN
1002
}
  0
LINE
  5
78C
330
21
100
AcDbEntity
  8
1
  6
Continuous
 62
     7
370
    18
100
AcDbLine
 10
2065.245616330434
 20
3442.800677269016
 30
0.0
 11
2435.745616330449
 21
3442.800677269019
 31
0.0
  0
ARC
  5
78D
330
21
100
AcDbEntity
  8
1
  6
Continuous
 62
     7
370
    18
100
AcDbCircle
 10
2045.233124133189
 20
3642.800677269021
 30
0.0
 40
10.0
100
AcDbArc
 50
2.862405226047404
 51
90.0
1001
GENIUS_GENODEF_13
1002
{
1000
HIER
1070
     0
1002
}
1002
{
1000
MANEDIT
1070
     0
1002
}
1002
{
1000
NOSEL
1070
     0
1002
}
1002
{
1000
BEHIND
1070
     0
1002
}
1002
{
1000
OTHER
1070
     0
1002
}
1002
{
1000
REACTOR
1002
}
1001
GENIUS_GENOBJ-N-FIL_13
1002
{
1000
OWNER
1000
GEN
1002
}
  0
LINE
  5
78E
330
21
100
AcDbEntity
  8
1
  6
Continuous
 62
     7
370
    18
100
AcDbLine
 10
2435.745616330449
 20
3442.80067726902
 30
0.0
 11
2454.745616330438
 21
3252.800677269017
 31
0.0
  0
LINE
  5
78F
330
21
100
AcDbEntity
  8
1
  6
Continuous
 62
     7
370
    18
100
AcDbLine
 10
2069.745616330438
 20
3352.800677269019
 30
0.0
 11
2169.745616330438
 21
3252.800677269017
 31
0.0
  0
LINE
  5
790
330
21
100
AcDbEntity
  8
1
  6
Continuous
 62
     7
370
    18
100
AcDbLine
 10
2054.745616330438
 20
3652.80067726902
 30
0.0
 11
1664.745616330437
 21
3652.80067726902
 31
0.0
  0
LINE
  5
791
330
21
100
AcDbEntity
  8
1
  6
Continuous
 62
     7
370
    18
100
AcDbLine
 10
2054.745616330441
 20
3652.80067726902
 30
0.0
 11
2069.745616330434
 21
3352.800677269023
 31
0.0
  0
CIRCLE
  5
792
330
21
100
AcDbEntity
  8
1
  6
Continuous
 62
     7
370
    18
100
AcDbCircle
 10
2354.745616330438
 20
3357.800677269017
 30
0.0
 40
15.0
  0
CIRCLE
  5
793
330
21
100
AcDbEntity
  8
1
  6
Continuous
 62
     7
370
    18
100
AcDbCircle
 10
2154.745616330438
 20
3357.800677269017
 30
0.0
 40
15.0
  0
LINE
  5
794
330
21
100
AcDbEntity
  8
1
  6
Continuous
 62
     7
370
    18
100
AcDbLine
 10
1654.745616330438
 20
3172.800677269017
 30
0.0
 11
2454.745616330438
 21
3172.800677269017
 31
0.0
  0
LINE
  5
795
330
21
100
AcDbEntity
  8
1
  6
Continuous
 62
     7
370
    18
100
AcDbLine
 10
1664.745616330437
 20
3652.80067726902
 30
0.0
 11
1654.745616330438
 21
3642.800677269021
 31
0.0
1001
GENIUS_GENFIL_13
1070
     0
1040
10.0
1040
10.0
1040
6.000000000000227
1040
44.99999999999782
1002
{
1002
}
1001
GENIUS_GENODEF_13
1002
{
1000
HIER
1070
     0
1002
}
1002
{
1000
MANEDIT
1070
     0
1002
}
1002
{
1000
NOSEL
1070
     0
1002
}
1002
{
1000
BEHIND
1070
     0
1002
}
1002
{
1000
OTHER
1070
     0
1002
}
1002
{
1000
REACTOR
1002
}
1001
GENIUS_GENOBJ-N-CHA_13
1002
{
1000
OWNER
1000
GEN
1002
}
  0
LINE
  5
796
330
21
100
AcDbEntity
  8
1
  6
Continuous
 62
     7
370
    18
100
AcDbLine
 10
1654.745616330438
 20
3172.800677269017
 30
0.0
 11
1654.745616330438
 21
3612.800677269021
 31
0.0
  0
LINE
  5
797
330
21
100
AcDbEntity
  8
1
  6
Continuous
 62
     7
370
    18
100
AcDbLine
 10
1974.745616330437
 20
3652.80067726902
 30
0.0
 11
1974.745616330437
 21
3172.800677269017
 31
0.0
  0
LINE
  5
798
330
21
100
AcDbEntity
  8
1
  6
Continuous
 62
     7
370
    18
100
AcDbLine
 10
2454.745616330438
 20
3252.800677269017
 30
0.0
 11
2169.745616330438
 21
3252.800677269017
 31
0.0
  0
LINE
  5
799
330
21
100
AcDbEntity
  8
1
  6
Continuous
 62
     7
370
    18
100
AcDbLine
 10
2064.745616330438
 20
3452.800677269016
 30
0.0
 11
2425.745616330452
 21
3452.800677269016
 31
0.0
  0
CIRCLE
  5
79A
330
21
100
AcDbEntity
  8
1
  6
Continuous
 62
     7
370
    18
100
AcDbCircle
 10
2354.745616330438
 20
3357.800677269017
 30
0.0
 40
25.0
  0
LINE
  5
79B
330
21
100
AcDbEntity
  8
1
  6
Continuous
 62
     7
370
    18
100
AcDbLine
 10
2054.745616330438
 20
3652.80067726902
 30
0.0
 11
2054.745616330438
 21
3172.800677269017
 31
0.0
  0
CIRCLE
  5
79C
330
21
100
AcDbEntity
  8
1
  6
Continuous
 62
     7
370
    18
100
AcDbCircle
 10
2154.745616330438
 20
3357.800677269017
 30
0.0
 40
25.0
  0
LINE
  5
79D
330
21
100
AcDbEntity
  8
1
  6
Continuous
 62
     7
370
    18
100
AcDbLine
 10
1934.745616330438
 20
3612.800677269021
 30
0.0
 11
1654.745616330438
 21
3612.800677269021
 31
0.0
1001
GENIUS_GENFIL_13
1070
     0
1040
0.0
1040
0.0
1040
10.00000000000045
1040
44.99999999999782
1002
{
1002
}
1001
GENIUS_GENODEF_13
1002
{
1000
HIER
1070
     0
1002
}
1002
{
1000
MANEDIT
1070
     0
1002
}
1002
{
1000
NOSEL
1070
     0
1002
}
1002
{
1000
BEHIND
1070
     0
1002
}
1002
{
1000
OTHER
1070
     0
1002
}
1002
{
1000
REACTOR
1002
}
1001
GENIUS_GENOBJ-N-CHA_13
1002
{
1000
OWNER
1000
GEN
1002
}
  0
LINE
  5
79E
330
21
100
AcDbEntity
  8
1
  6
Continuous
 62
     7
370
    18
100
AcDbLine
 10
1974.745616330437
 20
3652.80067726902
 30
0.0
 11
1934.745616330438
 21
3612.800677269021
 31
0.0
  0
LINE
  5
79F
330
21
100
AcDbEntity
  8
1
  6
Continuous
 62
     7
370
    18
100
AcDbLine
 10
2454.745616330438
 20
3252.800677269017
 30
0.0
 11
2454.745616330438
 21
3172.800677269017
 31
0.0
  0
LINE
  5
7A0
330
21
100
AcDbEntity
  8
1
  6
Continuous
 62
     7
370
    18
100
AcDbLine
 10
1660.745616330437
 20
3552.800677269021
 30
0.0
 11
1929.501031604748
 21
3527.123408293765
 31
0.0
  0
ARC
  5
7A1
330
21
100
AcDbEntity
  8
1
  6
Continuous
 62
     7
370
    18
100
AcDbCircle
 10
1924.745616330439
 20
3477.350061755997
 30
0.0
 40
49.99999999999849
100
AcDbArc
 50
0.0
 51
84.5424465149018
  0
LINE
  5
7A2
330
21
100
AcDbEntity
  8
1
  6
Continuous
 62
     7
370
    18
100
AcDbLine
 10
1974.745616330437
 20
3477.350061755997
 30
0.0
 11
1974.745616330437
 21
3328.251292782039
 31
0.0
  0
ARC
  5
7A3
330
21
100
AcDbEntity
  8
1
  6
Continuous
 62
     7
370
    18
100
AcDbCircle
 10
1924.745616330438
 20
3328.251292782039
 30
0.0
 40
50.0
100
AcDbArc
 50
275.4575534850982
 51
0.0
  0
LINE
  5
7A4
330
21
100
AcDbEntity
  8
1
  6
Continuous
 62
     7
370
    18
100
AcDbLine
 10
1929.501031604748
 20
3278.477946244269
 30
0.0
 11
1660.745616330437
 21
3252.800677269017
 31
0.0
  0
LINE
  5
7A5
330
21
100
AcDbEntity
  8
1
  6
Continuous
 62
     7
370
    18
100
AcDbLine
 10
1929.501031604748
 20
3527.123408293765
 30
0.0
 11
1929.501031604748
 21
3527.123408293765
 31
0.0
  0
LINE
  5
7A6
330
21
100
AcDbEntity
  8
1
  6
Continuous
 62
     7
370
    18
100
AcDbLine
 10
1974.745616330437
 20
3522.800677269019
 30
0.0
 11
1974.745616330437
 21
3477.350061755997
 31
0.0
  0
LINE
  5
7A7
330
21
100
AcDbEntity
  8
1
  6
Continuous
 62
     7
370
    18
100
AcDbLine
 10
1929.501031604748
 20
3278.477946244269
 30
0.0
 11
1929.501031604748
 21
3278.477946244269
 31
0.0
  0
LINE
  5
7A8
330
21
100
AcDbEntity
  8
1
  6
Continuous
 62
     7
370
    18
100
AcDbLine
 10
1974.745616330437
 20
3282.800677269017
 30
0.0
 11
1974.745616330437
 21
3328.251292782039
 31
0.0
  0
LINE
  5
7A9
330
21
100
AcDbEntity
  8
AM_0
  6
Continuous
 62
     7
370
    18
100
AcDbLine
 10
4037.569412330438
 20
3992.80067726902
 30
0.0
 11
4669.444412330438
 21
3992.800677269017
 31
0.0
  0
LINE
  5
7AA
330
21
100
AcDbEntity
  8
AM_0
  6
Continuous
 62
     7
370
    18
100
AcDbLine
 10
4769.444412330439
 20
4272.800677269017
 30
0.0
 11
4769.444412330439
 21
4092.800677269017
 31
0.0
  0
ARC
  5
7AB
330
21
100
AcDbEntity
  8
AM_0
  6
Continuous
 62
     7
370
    18
100
AcDbCircle
 10
4669.444412330438
 20
4092.800677269017
 30
0.0
 40
100.0
100
AcDbArc
 50
270.0
 51
0.0
  0
LINE
  5
7AC
330
21
100
AcDbEntity
  8
AM_4
100
AcDbLine
 10
4669.444412330438
 20
3942.800677269017
 30
0.0
 11
4669.444412330438
 21
3952.800677269017
 31
0.0
  0
LINE
  5
7AD
330
21
100
AcDbEntity
  8
1
  6
Continuous
 62
     7
370
    18
100
AcDbLine
 10
4021.077255471351
 20
3942.800677269017
 30
0.0
 11
4669.444412330438
 21
3942.800677269017
 31
0.0
  0
LINE
  5
7AE
330
21
100
AcDbEntity
  8
AM_0
  6
Continuous
 62
     7
370
    18
100
AcDbLine
 10
4809.444412330439
 20
4262.800677269017
 30
0.0
 11
4809.444412330439
 21
4092.800677269017
 31
0.0
  0
ARC
  5
7AF
330
21
100
AcDbEntity
  8
AM_0
  6
Continuous
 62
     7
370
    18
100
AcDbCircle
 10
4669.444412330438
 20
4092.800677269017
 30
0.0
 40
140.0
100
AcDbArc
 50
270.0
 51
0.0
  0
LINE
  5
7B0
330
21
100
AcDbEntity
  8
AM_0
  6
Continuous
 62
     7
370
    18
100
AcDbLine
 10
4034.444412330438
 20
3952.800677269017
 30
0.0
 11
4669.444412330438
 21
3952.800677269017
 31
0.0
  0
LINE
  5
7B1
330
21
100
AcDbEntity
  8
1
  6
Continuous
 62
     7
370
    18
100
AcDbLine
 10
5984.44441233044
 20
3952.800677269017
 30
0.0
 11
5349.44441233044
 21
3952.800677269017
 31
0.0
  0
ARC
  5
7B2
330
21
100
AcDbEntity
  8
AM_0
  6
Continuous
 62
     7
370
    18
100
AcDbCircle
 10
5349.44441233044
 20
4092.800677269017
 30
0.0
 40
140.0
100
AcDbArc
 50
180.0
 51
270.0
  0
LINE
  5
7B3
330
21
100
AcDbEntity
  8
1
  6
Continuous
 62
     7
370
    18
100
AcDbLine
 10
5997.811569189527
 20
3942.800677269017
 30
0.0
 11
5349.44441233044
 21
3942.800677269017
 31
0.0
  0
LINE
  5
7B4
330
21
100
AcDbEntity
  8
1
  6
Continuous
 62
     7
370
    18
100
AcDbLine
 10
5349.44441233044
 20
3942.800677269017
 30
0.0
 11
5349.44441233044
 21
3952.800677269017
 31
0.0
  0
ARC
  5
7B5
330
21
100
AcDbEntity
  8
AM_0
  6
Continuous
 62
     7
370
    18
100
AcDbCircle
 10
5349.44441233044
 20
4092.800677269017
 30
0.0
 40
100.0
100
AcDbArc
 50
180.0
 51
270.0
  0
LINE
  5
7B6
330
21
100
AcDbEntity
  8
1
  6
Continuous
 62
     7
370
    18
100
AcDbLine
 10
5981.31941233044
 20
3992.80067726902
 30
0.0
 11
5349.44441233044
 21
3992.800677269017
 31
0.0
  0
LINE
  5
7B7
330
21
100
AcDbEntity
  8
AM_0
  6
Continuous
 62
     7
370
    18
100
AcDbLine
 10
5209.444412330441
 20
4262.800677269017
 30
0.0
 11
5209.444412330441
 21
4092.800677269017
 31
0.0
  0
LINE
  5
7B8
330
21
100
AcDbEntity
  8
AM_0
  6
Continuous
 62
     7
370
    18
100
AcDbLine
 10
5249.44441233044
 20
4272.800677269017
 30
0.0
 11
5249.44441233044
 21
4092.800677269017
 31
0.0
  0
CIRCLE
  5
7B9
330
21
100
AcDbEntity
  8
1
  6
Continuous
 62
     7
370
    18
100
AcDbCircle
 10
5009.444412330438
 20
4027.800677269016
 30
0.0
 40
97.5
  0
CIRCLE
  5
7BA
330
21
100
AcDbEntity
  8
AM_0
  6
Continuous
 62
     7
370
    18
100
AcDbCircle
 10
5009.444412330438
 20
4027.800677269016
 30
0.0
 40
82.5
  0
LINE
  5
7BB
330
21
100
AcDbEntity
  8
1
  6
Continuous
 62
     7
370
    18
100
AcDbLine
 10
4254.689933386998
 20
3757.800677269017
 30
0.0
 11
4254.689933386998
 21
3472.800677269017
 31
0.0
  0
LINE
  5
7BC
330
21
100
AcDbEntity
  8
1
  6
Continuous
 62
     7
370
    18
100
AcDbLine
 10
4089.444412330438
 20
3757.800677269017
 30
0.0
 11
4089.444412330438
 21
3472.800677269017
 31
0.0
  0
ARC
  5
7BD
330
21
100
AcDbEntity
  8
1
  6
Continuous
 62
     7
370
    18
100
AcDbCircle
 10
4254.689933386998
 20
3803.049883082462
 30
0.0
 40
45.24920581344486
100
AcDbArc
 50
184.5524736676708
 51
270.0
  0
LINE
  5
7BE
330
21
100
AcDbEntity
  8
1
  6
Continuous
 62
     7
370
    18
100
AcDbLine
 10
4204.937951293508
 20
3857.802283117555
 30
0.0
 11
4209.583486111394
 21
3799.458359600689
 31
0.0
  0
LINE
  5
7BF
330
21
100
AcDbEntity
  8
1
  6
Continuous
 62
     7
370
    18
100
AcDbLine
 10
4212.159174283686
 20
3476.649180460765
 30
0.0
 11
4254.689933386998
 21
3472.800677269017
 31
0.0
  0
LINE
  5
7C0
330
21
100
AcDbEntity
  8
1
  6
Continuous
 62
     7
370
    18
100
AcDbLine
 10
4204.937951293508
 20
3857.802283117555
 30
0.0
 11
4204.937951293508
 21
3478.719145388459
 31
0.0
  0
ARC
  5
7C1
330
21
100
AcDbEntity
  8
1
  6
Continuous
 62
     7
370
    18
100
AcDbCircle
 10
4213.961560893065
 20
3496.567799953853
 30
0.0
 40
20.0
100
AcDbArc
 50
225.0000000001522
 51
264.8295278800912
1001
GENIUS_GENODEF_13
1002
{
1000
HIER
1070
     0
1002
}
1002
{
1000
MANEDIT
1070
     0
1002
}
1002
{
1000
NOSEL
1070
     0
1002
}
1002
{
1000
BEHIND
1070
     0
1002
}
1002
{
1000
OTHER
1070
     0
1002
}
1002
{
1000
REACTOR
1002
}
1001
GENIUS_GENOBJ-N-FIL_13
1002
{
1000
OWNER
1000
GEN
1002
}
  0
LINE
  5
7C2
330
21
100
AcDbEntity
  8
1
  6
Continuous
 62
     7
370
    18
100
AcDbLine
 10
4109.444412330436
 20
3862.800677269014
 30
0.0
 11
4189.444412330438
 21
3862.800677269021
 31
0.0
1001
GENIUS_GENREC_14
1002
{
1000
PYDIR
1011
4118.444412330438
1021
3501.800677269005
1031
0.0
1002
}
1002
{
1000
PXDIR
1011
4180.444163447744
1021
3862.800677269017
1031
0.0
1002
}
1002
{
1000
PORI
1011
4118.444412330438
1021
3862.800677269017
1031
0.0
1002
}
1002
{
1000
PINS
1011
4118.444412330438
1021
3862.800677269017
1031
0.0
1002
}
1002
{
1000
PINS2
1011
4180.444163447744
1021
3501.800677269005
1031
0.0
1002
}
1002
{
1000
C
1070
     1
1002
}
1001
GENIUS_GENOBJ-N-REC_13
1002
{
1000
OWNER
1000
GEN
1002
}
1001
GENIUS_GENODEF_13
1002
{
1000
HIER
1070
     0
1002
}
1002
{
1000
MANEDIT
1070
     0
1002
}
1002
{
1000
NOSEL
1070
     0
1002
}
1002
{
1000
BEHIND
1070
     0
1002
}
1002
{
1000
OTHER
1070
     0
1002
}
1002
{
1000
REACTOR
1002
}
  0
LINE
  5
7C3
330
21
100
AcDbEntity
  8
1
  6
Continuous
 62
     7
370
    18
100
AcDbLine
 10
4109.444412330439
 20
3491.800677269004
 30
0.0
 11
4089.444412330438
 21
3472.800677269017
 31
0.0
  0
LINE
  5
7C4
330
21
100
AcDbEntity
  8
1
  6
Continuous
 62
     7
370
    18
100
AcDbLine
 10
4189.444412330438
 20
3491.800677269004
 30
0.0
 11
4199.819425269332
 21
3482.42566433012
 31
0.0
  0
LINE
  5
7C6
330
21
100
AcDbEntity
  8
1
  6
Continuous
 62
     7
370
    18
100
AcDbLine
 10
4089.444412330438
 20
3757.800677269017
 30
0.0
 11
4038.038162330439
 21
3757.800677269017
 31
0.0
  0
LINE
  5
7C7
330
21
100
AcDbEntity
  8
1
  6
Continuous
 62
     7
370
    18
100
AcDbLine
 10
5764.198891273885
 20
3757.800677269017
 30
0.0
 11
4254.689933386998
 21
3757.800677269017
 31
0.0
  0
LINE
  5
7C8
330
21
100
AcDbEntity
  8
1
  6
Continuous
 62
     7
370
    18
100
AcDbLine
 10
4109.444412330439
 20
3491.800677269004
 30
0.0
 11
4189.444412330438
 21
3491.800677269004
 31
0.0
  0
LINE
  5
7C9
330
21
100
AcDbEntity
  8
1
  6
Continuous
 62
     7
370
    18
100
AcDbLine
 10
4089.444412330438
 20
3757.800677269017
 30
0.0
 11
4099.444412330438
 21
3857.800677269017
 31
0.0
  0
LINE
  5
7CA
330
21
100
AcDbEntity
  8
1
  6
Continuous
 62
     7
370
    18
100
AcDbLine
 10
4099.444412330438
 20
3857.800677269017
 30
0.0
 11
4109.44441233044
 21
3862.800677269021
 31
0.0
  0
LINE
  5
7CB
330
21
100
AcDbEntity
  8
1
  6
Continuous
 62
     7
370
    18
100
AcDbLine
 10
4204.942928947548
 20
3857.800677269017
 30
0.0
 11
4189.444412330438
 21
3862.800677269021
 31
0.0
  0
LINE
  5
7CC
330
21
100
AcDbEntity
  8
1
  6
Continuous
 62
     7
370
    18
100
AcDbLine
 10
4204.942928947548
 20
3857.800677269017
 30
0.0
 11
5813.945895713328
 21
3857.800677269017
 31
0.0
  0
LINE
  5
7CD
330
21
100
AcDbEntity
  8
1
  6
Continuous
 62
     7
370
    18
100
AcDbLine
 10
4099.444412330438
 20
3857.800677269017
 30
0.0
 11
4034.913162330439
 21
3857.800677269017
 31
0.0
  0
LINE
  5
7CE
330
21
100
AcDbEntity
  8
1
  6
Continuous
 62
     7
370
    18
100
AcDbLine
 10
5813.945895713328
 20
3857.800677269017
 30
0.0
 11
5829.444412330438
 21
3862.800677269021
 31
0.0
  0
LINE
  5
7CF
330
21
100
AcDbEntity
  8
1
  6
Continuous
 62
     7
370
    18
100
AcDbLine
 10
5919.444412330438
 20
3857.800677269017
 30
0.0
 11
5909.444412330437
 21
3862.800677269021
 31
0.0
  0
LINE
  5
7D0
330
21
100
AcDbEntity
  8
1
  6
Continuous
 62
     7
370
    18
100
AcDbLine
 10
5929.444412330439
 20
3757.800677269017
 30
0.0
 11
5919.444412330438
 21
3857.800677269017
 31
0.0
  0
LINE
  5
7D1
330
21
100
AcDbEntity
  8
1
  6
Continuous
 62
     7
370
    18
100
AcDbLine
 10
5909.444412330438
 20
3491.800677269004
 30
0.0
 11
5829.444412330438
 21
3491.800677269004
 31
0.0
  0
LINE
  5
7D3
330
21
100
AcDbEntity
  8
1
  6
Continuous
 62
     7
370
    18
100
AcDbLine
 10
5829.444412330438
 20
3491.800677269004
 30
0.0
 11
5819.069399391544
 21
3482.42566433012
 31
0.0
  0
LINE
  5
7D4
330
21
100
AcDbEntity
  8
1
  6
Continuous
 62
     7
370
    18
100
AcDbLine
 10
5909.444412330438
 20
3491.800677269004
 30
0.0
 11
5929.444412330439
 21
3472.800677269017
 31
0.0
  0
LINE
  5
7D5
330
21
100
AcDbEntity
  8
1
  6
Continuous
 62
     7
370
    18
100
AcDbLine
 10
5909.44441233044
 20
3862.800677269014
 30
0.0
 11
5829.444412330438
 21
3862.800677269021
 31
0.0
1001
GENIUS_GENREC_14
1002
{
1000
PYDIR
1011
5900.444412330438
1021
3501.800677269005
1031
0.0
1002
}
1002
{
1000
PXDIR
1011
5838.444661213133
1021
3862.800677269017
1031
0.0
1002
}
1002
{
1000
PORI
1011
5900.444412330438
1021
3862.800677269017
1031
0.0
1002
}
1002
{
1000
PINS
1011
5900.444412330438
1021
3862.800677269017
1031
0.0
1002
}
1002
{
1000
PINS2
1011
5838.444661213133
1021
3501.800677269005
1031
0.0
1002
}
1002
{
1000
C
1070
     1
1002
}
1001
GENIUS_GENOBJ-N-REC_13
1002
{
1000
OWNER
1000
GEN
1002
}
1001
GENIUS_GENODEF_13
1002
{
1000
HIER
1070
     0
1002
}
1002
{
1000
MANEDIT
1070
     0
1002
}
1002
{
1000
NOSEL
1070
     0
1002
}
1002
{
1000
BEHIND
1070
     0
1002
}
1002
{
1000
OTHER
1070
     0
1002
}
1002
{
1000
REACTOR
1002
}
  0
ARC
  5
7D6
330
21
100
AcDbEntity
  8
1
  6
Continuous
 62
     7
370
    18
100
AcDbCircle
 10
5804.927263767812
 20
3496.567799953853
 30
0.0
 40
20.0
100
AcDbArc
 50
275.1704721199088
 51
314.9999999998478
1001
GENIUS_GENODEF_13
1002
{
1000
HIER
1070
     0
1002
}
1002
{
1000
MANEDIT
1070
     0
1002
}
1002
{
1000
NOSEL
1070
     0
1002
}
1002
{
1000
BEHIND
1070
     0
1002
}
1002
{
1000
OTHER
1070
     0
1002
}
1002
{
1000
REACTOR
1002
}
1001
GENIUS_GENOBJ-N-FIL_13
1002
{
1000
OWNER
1000
GEN
1002
}
  0
LINE
  5
7D7
330
21
100
AcDbEntity
  8
1
  6
Continuous
 62
     7
370
    18
100
AcDbLine
 10
5813.950873367368
 20
3857.802283117555
 30
0.0
 11
5813.950873367368
 21
3478.719145388459
 31
0.0
  0
LINE
  5
7D8
330
21
100
AcDbEntity
  8
1
  6
Continuous
 62
     7
370
    18
100
AcDbLine
 10
5806.729650377191
 20
3476.649180460765
 30
0.0
 11
5764.198891273878
 21
3472.800677269017
 31
0.0
  0
LINE
  5
7D9
330
21
100
AcDbEntity
  8
1
  6
Continuous
 62
     7
370
    18
100
AcDbLine
 10
5813.950873367368
 20
3857.802283117555
 30
0.0
 11
5809.305338549482
 21
3799.458359600689
 31
0.0
  0
ARC
  5
7DA
330
21
100
AcDbEntity
  8
1
  6
Continuous
 62
     7
370
    18
100
AcDbCircle
 10
5764.198891273878
 20
3803.049883082462
 30
0.0
 40
45.24920581344486
100
AcDbArc
 50
270.0
 51
355.4475263323292
  0
LINE
  5
7DB
330
21
100
AcDbEntity
  8
1
  6
Continuous
 62
     7
370
    18
100
AcDbLine
 10
5929.444412330439
 20
3757.800677269017
 30
0.0
 11
5929.444412330439
 21
3472.800677269017
 31
0.0
  0
LINE
  5
7DC
330
21
100
AcDbEntity
  8
1
  6
Continuous
 62
     7
370
    18
100
AcDbLine
 10
5764.198891273878
 20
3757.800677269017
 30
0.0
 11
5764.198891273878
 21
3472.800677269017
 31
0.0
  0
LINE
  5
7DD
330
21
100
AcDbEntity
  8
1
  6
Continuous
 62
     7
370
    18
100
AcDbLine
 10
5909.444412330437
 20
3862.800677269021
 30
0.0
 11
5909.444412330438
 21
3491.800677269004
 31
0.0
  0
LINE
  5
7DE
330
21
100
AcDbEntity
  8
1
  6
Continuous
 62
     7
370
    18
100
AcDbLine
 10
5829.444412330438
 20
3862.800677269021
 30
0.0
 11
5829.444412330438
 21
3491.800677269004
 31
0.0
  0
LINE
  5
7DF
330
21
100
AcDbEntity
  8
1
  6
Continuous
 62
     7
370
    18
100
AcDbLine
 10
5929.444412330439
 20
3757.800677269017
 30
0.0
 11
5980.850662330438
 21
3757.800677269017
 31
0.0
  0
LINE
  5
7E0
330
21
100
AcDbEntity
  8
1
  6
Continuous
 62
     7
370
    18
100
AcDbLine
 10
5919.444412330438
 20
3857.800677269017
 30
0.0
 11
5983.975662330438
 21
3857.800677269017
 31
0.0
  0
ARC
  5
7E1
330
21
100
AcDbEntity
  8
1
  6
Continuous
 62
     7
370
    18
100
AcDbCircle
 10
4254.689933386998
 20
1521.260539523322
 30
0.0
 40
50.0
100
AcDbArc
 50
185.7091812599814
 51
270.0
  0
LINE
  5
7E2
330
21
100
AcDbEntity
  8
1
  6
Continuous
 62
     7
370
    18
100
AcDbLine
 10
4109.444412330439
 20
1671.260539523318
 30
0.0
 11
4189.444412330438
 21
1671.26053952332
 31
0.0
  0
LINE
  5
7E3
330
21
100
AcDbEntity
  8
1
  6
Continuous
 62
     7
370
    18
100
AcDbLine
 10
4046.944412330439
 20
1471.26053952332
 30
0.0
 11
4046.944412330439
 21
1391.26053952332
 31
0.0
  0
LINE
  5
7E4
330
21
100
AcDbEntity
  8
1
  6
Continuous
 62
     7
370
    18
100
AcDbLine
 10
5984.444412330439
 20
1471.26053952332
 30
0.0
 11
5929.444412330446
 21
1471.26053952332
 31
0.0
  0
LINE
  5
7E5
330
21
100
AcDbEntity
  8
1
  6
Continuous
 62
     7
370
    18
100
AcDbLine
 10
4254.689933386998
 20
1471.26053952332
 30
0.0
 11
5764.198891273885
 21
1471.26053952332
 31
0.0
  0
LINE
  5
7E6
330
21
100
AcDbEntity
  8
1
  6
Continuous
 62
     7
370
    18
100
AcDbLine
 10
4204.937951293508
 20
1516.286579554744
 30
0.0
 11
4189.444412330438
 21
1671.26053952332
 31
0.0
  0
LINE
  5
7E7
330
21
100
AcDbEntity
  8
1
  6
Continuous
 62
     7
370
    18
100
AcDbLine
 10
4109.444412330439
 20
1671.260539523318
 30
0.0
 11
4089.444412330438
 21
1471.26053952332
 31
0.0
  0
LINE
  5
7E8
330
21
100
AcDbEntity
  8
1
  6
Continuous
 62
     7
370
    18
100
AcDbLine
 10
4034.444412330438
 20
1471.26053952332
 30
0.0
 11
4089.444412330438
 21
1471.26053952332
 31
0.0
  0
LINE
  5
7E9
330
21
100
AcDbEntity
  8
1
  6
Continuous
 62
     7
370
    18
100
AcDbLine
 10
5984.444412330439
 20
1391.26053952332
 30
0.0
 11
5984.444412330439
 21
1871.260539523322
 31
0.0
  0
LINE
  5
7EA
330
21
100
AcDbEntity
  8
1
  6
Continuous
 62
     7
370
    18
100
AcDbLine
 10
4034.444412330438
 20
1871.260539523322
 30
0.0
 11
4034.444412330438
 21
1391.26053952332
 31
0.0
  0
LINE
  5
7EB
330
21
100
AcDbEntity
  8
1
  6
Continuous
 62
     7
370
    18
100
AcDbLine
 10
6009.444412330438
 20
1871.260539523322
 30
0.0
 11
4009.444412330438
 21
1871.260539523322
 31
0.0
  0
LINE
  5
7EC
330
21
100
AcDbEntity
  8
1
  6
Continuous
 62
     7
370
    18
100
AcDbLine
 10
6009.444412330438
 20
1391.26053952332
 30
0.0
 11
6009.444412330438
 21
1871.260539523322
 31
0.0
  0
LINE
  5
7ED
330
21
100
AcDbEntity
  8
1
  6
Continuous
 62
     7
370
    18
100
AcDbLine
 10
4009.444412330438
 20
1391.26053952332
 30
0.0
 11
6009.444412330438
 21
1391.26053952332
 31
0.0
  0
LINE
  5
7EE
330
21
100
AcDbEntity
  8
1
  6
Continuous
 62
     7
370
    18
100
AcDbLine
 10
4009.444412330438
 20
1871.260539523322
 30
0.0
 11
4009.444412330438
 21
1391.26053952332
 31
0.0
  0
LINE
  5
7F0
330
21
100
AcDbEntity
  8
1
  6
Continuous
 62
     7
370
    18
100
AcDbLine
 10
4034.444412330438
 20
1571.260539523322
 30
0.0
 11
4099.444412330438
 21
1571.260539523322
 31
0.0
  0
LINE
  5
7F1
330
21
100
AcDbEntity
  8
1
  6
Continuous
 62
     7
370
    18
100
AcDbLine
 10
4199.441923503418
 20
1571.260539523322
 30
0.0
 11
5819.446901157466
 21
1571.260539523322
 31
0.0
  0
LINE
  5
7F2
330
21
100
AcDbEntity
  8
1
  6
Continuous
 62
     7
370
    18
100
AcDbLine
 10
5984.444412330439
 20
1571.260539523322
 30
0.0
 11
5919.444412330445
 21
1571.260539523322
 31
0.0
  0
LINE
  5
7F3
330
21
100
AcDbEntity
  8
1
  6
Continuous
 62
     7
370
    18
100
AcDbLine
 10
4034.444412330438
 20
1861.759915692759
 30
0.0
 11
5984.444412330439
 21
1861.759915692759
 31
0.0
  0
LINE
  5
7F4
330
21
100
AcDbEntity
  8
1
  6
Continuous
 62
     7
370
    18
100
AcDbLine
 10
4108.444412330438
 20
1661.260539523322
 30
0.0
 11
4118.444412330438
 21
1671.260539523318
 31
0.0
  0
LINE
  5
7F5
330
21
100
AcDbEntity
  8
1
  6
Continuous
 62
     7
370
    18
100
AcDbLine
 10
4190.444163447737
 20
1661.260539523322
 30
0.0
 11
4180.444163447737
 21
1671.260539523318
 31
0.0
  0
ARC
  5
7F6
330
21
100
AcDbEntity
  8
1
  6
Continuous
 62
     7
370
    18
100
AcDbCircle
 10
5764.198891273885
 20
1521.260539523322
 30
0.0
 40
50.0
100
AcDbArc
 50
270.0
 51
354.2908187400186
  0
LINE
  5
7F7
330
21
100
AcDbEntity
  8
1
  6
Continuous
 62
     7
370
    18
100
AcDbLine
 10
5900.444412330438
 20
1671.260539523318
 30
0.0
 11
5838.444661213147
 21
1671.260539523322
 31
0.0
  0
LINE
  5
7F8
330
21
100
AcDbEntity
  8
1
  6
Continuous
 62
     7
370
    18
100
AcDbLine
 10
5813.950873367375
 20
1516.286579554744
 30
0.0
 11
5828.444661213147
 21
1661.260539523317
 31
0.0
  0
LINE
  5
7F9
330
21
100
AcDbEntity
  8
1
  6
Continuous
 62
     7
370
    18
100
AcDbLine
 10
5910.444412330438
 20
1661.260539523318
 30
0.0
 11
5929.444412330446
 21
1471.26053952332
 31
0.0
  0
LINE
  5
7FA
330
21
100
AcDbEntity
  8
1
  6
Continuous
 62
     7
370
    18
100
AcDbLine
 10
5910.444412330438
 20
1661.260539523322
 30
0.0
 11
5900.444412330446
 21
1671.260539523318
 31
0.0
  0
LINE
  5
7FB
330
21
100
AcDbEntity
  8
1
  6
Continuous
 62
     7
370
    18
100
AcDbLine
 10
5828.444661213147
 20
1661.260539523322
 30
0.0
 11
5838.44466121314
 21
1671.260539523318
 31
0.0
  0
LINE
  5
7FC
330
21
100
AcDbEntity
  8
1
  6
Continuous
 62
     7
370
    18
100
AcDbLine
 10
2187.764594893328
 20
1871.260539523322
 30
0.0
 11
2147.76459489332
 21
1831.260539523322
 31
0.0
  0
LINE
  5
7FD
330
21
100
AcDbEntity
  8
1
  6
Continuous
 62
     7
370
    18
100
AcDbLine
 10
2587.764594893335
 20
1871.260539523322
 30
0.0
 11
2627.764594893343
 21
1831.260539523322
 31
0.0
  0
LINE
  5
7FE
330
21
100
AcDbEntity
  8
1
  6
Continuous
 62
     7
370
    18
100
AcDbLine
 10
2617.764594893332
 20
1501.260539523322
 30
0.0
 11
2581.764594893332
 21
1465.26053952332
 31
0.0
  0
LINE
  5
7FF
330
21
100
AcDbEntity
  8
1
  6
Continuous
 62
     7
370
    18
100
AcDbLine
 10
2617.764594893332
 20
1741.260539523322
 30
0.0
 11
2581.764594893332
 21
1777.260539523322
 31
0.0
  0
LINE
  5
800
330
21
100
AcDbEntity
  8
1
  6
Continuous
 62
     7
370
    18
100
AcDbLine
 10
3362.764594893331
 20
1831.260539523322
 30
0.0
 11
2627.764594893343
 21
1831.260539523322
 31
0.0
  0
LINE
  5
801
330
21
100
AcDbEntity
  8
1
  6
Continuous
 62
     7
370
    18
100
AcDbLine
 10
2157.764594893331
 20
1501.260539523322
 30
0.0
 11
2193.764594893332
 21
1465.26053952332
 31
0.0
  0
LINE
  5
802
330
21
100
AcDbEntity
  8
1
  6
Continuous
 62
     7
370
    18
100
AcDbLine
 10
2157.764594893331
 20
1741.260539523322
 30
0.0
 11
2193.764594893332
 21
1777.260539523322
 31
0.0
  0
LINE
  5
803
330
21
100
AcDbEntity
  8
1
  6
Continuous
 62
     7
370
    18
100
AcDbLine
 10
1412.764594893331
 20
1831.260539523322
 30
0.0
 11
2147.764594893335
 21
1831.260539523322
 31
0.0
  0
LINE
  5
804
330
21
100
AcDbEntity
  8
1
  6
Continuous
 62
     7
370
    18
100
AcDbLine
 10
3142.519073836778
 20
1471.26053952332
 30
0.0
 11
3307.764594893339
 21
1471.26053952332
 31
0.0
  0
LINE
  5
805
330
21
100
AcDbEntity
  8
1
  6
Continuous
 62
     7
370
    18
100
AcDbLine
 10
1633.010115949891
 20
1471.26053952332
 30
0.0
 11
1467.764594893331
 21
1471.26053952332
 31
0.0
  0
LINE
  5
806
330
21
100
AcDbEntity
  8
1
  6
Continuous
 62
     7
370
    18
100
AcDbLine
 10
1387.764594893331
 20
1871.260539523322
 30
0.0
 11
1387.764594893331
 21
1391.26053952332
 31
0.0
  0
LINE
  5
807
330
21
100
AcDbEntity
  8
1
  6
Continuous
 62
     7
370
    18
100
AcDbLine
 10
1387.764594893331
 20
1391.26053952332
 30
0.0
 11
3387.764594893332
 21
1391.26053952332
 31
0.0
  0
LINE
  5
808
330
21
100
AcDbEntity
  8
1
  6
Continuous
 62
     7
370
    18
100
AcDbLine
 10
3387.764594893332
 20
1391.26053952332
 30
0.0
 11
3387.764594893332
 21
1871.260539523322
 31
0.0
  0
LINE
  5
809
330
21
100
AcDbEntity
  8
1
  6
Continuous
 62
     7
370
    18
100
AcDbLine
 10
3387.764594893332
 20
1871.260539523322
 30
0.0
 11
1387.764594893331
 21
1871.260539523322
 31
0.0
  0
LINE
  5
80A
330
21
100
AcDbEntity
  8
1
  6
Continuous
 62
     7
370
    18
100
AcDbLine
 10
1412.764594893331
 20
1871.260539523322
 30
0.0
 11
1412.764594893331
 21
1391.26053952332
 31
0.0
  0
LINE
  5
80B
330
21
100
AcDbEntity
  8
1
  6
Continuous
 62
     7
370
    18
100
AcDbLine
 10
3362.764594893331
 20
1391.26053952332
 30
0.0
 11
3362.764594893331
 21
1871.260539523322
 31
0.0
  0
LINE
  5
80C
330
21
100
AcDbEntity
  8
1
  6
Continuous
 62
     7
370
    18
100
AcDbLine
 10
1437.764594893331
 20
1471.26053952332
 30
0.0
 11
1437.764594893331
 21
1391.26053952332
 31
0.0
  0
LINE
  5
80D
330
21
100
AcDbEntity
  8
1
  6
Continuous
 62
     7
370
    18
100
AcDbLine
 10
3337.764594893331
 20
1471.26053952332
 30
0.0
 11
3337.764594893331
 21
1391.26053952332
 31
0.0
  0
LINE
  5
80E
330
21
100
AcDbEntity
  8
1
  6
Continuous
 62
     7
370
    18
100
AcDbLine
 10
3362.764594893331
 20
1771.260539523322
 30
0.0
 11
2587.764594893331
 21
1771.260539523322
 31
0.0
  0
LINE
  5
80F
330
21
100
AcDbEntity
  8
1
  6
Continuous
 62
     7
370
    18
100
AcDbLine
 10
2587.764594893331
 20
1771.260539523322
 30
0.0
 11
2587.764594893331
 21
1471.26053952332
 31
0.0
  0
LINE
  5
810
330
21
100
AcDbEntity
  8
1
  6
Continuous
 62
     7
370
    18
100
AcDbLine
 10
2587.764594893331
 20
1471.26053952332
 30
0.0
 11
3362.764594893331
 21
1471.260539523322
 31
0.0
  0
LINE
  5
811
330
21
100
AcDbEntity
  8
1
  6
Continuous
 62
     7
370
    18
100
AcDbLine
 10
3362.764594893331
 20
1777.260539523322
 30
0.0
 11
2581.764594893332
 21
1777.260539523322
 31
0.0
  0
LINE
  5
812
330
21
100
AcDbEntity
  8
1
  6
Continuous
 62
     7
370
    18
100
AcDbLine
 10
2581.764594893332
 20
1777.260539523322
 30
0.0
 11
2581.764594893332
 21
1465.26053952332
 31
0.0
  0
LINE
  5
813
330
21
100
AcDbEntity
  8
1
  6
Continuous
 62
     7
370
    18
100
AcDbLine
 10
2581.764594893332
 20
1465.26053952332
 30
0.0
 11
3362.764594893331
 21
1465.260539523322
 31
0.0
  0
LINE
  5
814
330
21
100
AcDbEntity
  8
1
  6
Continuous
 62
     7
370
    18
100
AcDbLine
 10
3362.764594893331
 20
1741.260539523322
 30
0.0
 11
2617.764594893332
 21
1741.260539523322
 31
0.0
  0
LINE
  5
815
330
21
100
AcDbEntity
  8
1
  6
Continuous
 62
     7
370
    18
100
AcDbLine
 10
2617.764594893332
 20
1741.260539523322
 30
0.0
 11
2617.764594893332
 21
1501.26053952332
 31
0.0
  0
LINE
  5
816
330
21
100
AcDbEntity
  8
1
  6
Continuous
 62
     7
370
    18
100
AcDbLine
 10
2617.764594893332
 20
1501.26053952332
 30
0.0
 11
3362.764594893331
 21
1501.260539523322
 31
0.0
  0
LINE
  5
817
330
21
100
AcDbEntity
  8
1
  6
Continuous
 62
     7
370
    18
100
AcDbLine
 10
1412.764594893331
 20
1771.260539523322
 30
0.0
 11
2187.764594893331
 21
1771.260539523322
 31
0.0
  0
LINE
  5
818
330
21
100
AcDbEntity
  8
1
  6
Continuous
 62
     7
370
    18
100
AcDbLine
 10
2187.764594893331
 20
1771.260539523322
 30
0.0
 11
2187.764594893331
 21
1471.26053952332
 31
0.0
  0
LINE
  5
819
330
21
100
AcDbEntity
  8
1
  6
Continuous
 62
     7
370
    18
100
AcDbLine
 10
2187.764594893331
 20
1471.26053952332
 30
0.0
 11
1412.764594893331
 21
1471.260539523322
 31
0.0
  0
LINE
  5
81A
330
21
100
AcDbEntity
  8
1
  6
Continuous
 62
     7
370
    18
100
AcDbLine
 10
1412.764594893331
 20
1741.260539523322
 30
0.0
 11
2157.764594893331
 21
1741.260539523322
 31
0.0
  0
LINE
  5
81B
330
21
100
AcDbEntity
  8
1
  6
Continuous
 62
     7
370
    18
100
AcDbLine
 10
2157.764594893331
 20
1741.260539523322
 30
0.0
 11
2157.764594893331
 21
1501.26053952332
 31
0.0
  0
LINE
  5
81C
330
21
100
AcDbEntity
  8
1
  6
Continuous
 62
     7
370
    18
100
AcDbLine
 10
2157.764594893331
 20
1501.26053952332
 30
0.0
 11
1412.764594893331
 21
1501.260539523322
 31
0.0
  0
LINE
  5
81D
330
21
100
AcDbEntity
  8
1
  6
Continuous
 62
     7
370
    18
100
AcDbLine
 10
1412.764594893331
 20
1777.260539523322
 30
0.0
 11
2193.764594893332
 21
1777.260539523322
 31
0.0
  0
LINE
  5
81E
330
21
100
AcDbEntity
  8
1
  6
Continuous
 62
     7
370
    18
100
AcDbLine
 10
2193.764594893332
 20
1777.260539523322
 30
0.0
 11
2193.764594893332
 21
1465.26053952332
 31
0.0
  0
LINE
  5
81F
330
21
100
AcDbEntity
  8
1
  6
Continuous
 62
     7
370
    18
100
AcDbLine
 10
2193.764594893332
 20
1465.26053952332
 30
0.0
 11
1412.764594893331
 21
1465.260539523322
 31
0.0
  0
LINE
  5
820
330
21
100
AcDbEntity
  8
1
  6
Continuous
 62
     7
370
    18
100
AcDbLine
 10
5971.944412330437
 20
1471.26053952332
 30
0.0
 11
5971.944412330437
 21
1391.26053952332
 31
0.0
  0
LINE
  5
822
330
21
100
AcDbEntity
  8
1
  6
Continuous
 62
     7
370
    18
100
AcDbLine
 10
4109.444412330439
 20
1711.939594456977
 30
0.0
 11
4109.444412330439
 21
1785.406722994667
 31
0.0
  0
LINE
  5
823
330
21
100
AcDbEntity
  8
1
  6
Continuous
 62
     7
370
    18
100
AcDbLine
 10
3969.444412330439
 20
1760.406722994667
 30
0.0
 11
3929.444412330439
 21
1760.406722994667
 31
0.0
  0
LINE
  5
824
330
21
100
AcDbEntity
  8
1
  6
Continuous
 62
     7
370
    18
100
AcDbLine
 10
4149.444412330438
 20
1760.406722994667
 30
0.0
 11
4189.444412330438
 21
1760.406722994667
 31
0.0
  0
LINE
  5
825
330
21
100
AcDbEntity
  8
1
  6
Continuous
 62
     7
370
    18
100
AcDbLine
 10
4109.444412330439
 20
1711.939594456977
 30
0.0
 11
4109.444412330439
 21
1785.406722994667
 31
0.0
  0
LINE
  5
826
330
21
100
AcDbEntity
  8
1
  6
Continuous
 62
     7
370
    18
100
AcDbLine
 10
4189.444412330438
 20
1731.26053952332
 30
0.0
 11
4189.444412330438
 21
1785.406722994667
 31
0.0
  0
LINE
  5
827
330
21
100
AcDbEntity
  8
1
  6
Continuous
 62
     7
370
    18
100
AcDbLine
 10
4069.444412330438
 20
1760.406722994667
 30
0.0
 11
4029.444412330438
 21
1760.406722994667
 31
0.0
  0
LINE
  5
828
330
21
100
AcDbEntity
  8
1
  6
Continuous
 62
     7
370
    18
100
AcDbLine
 10
4229.444412330439
 20
1760.406722994667
 30
0.0
 11
4269.444412330439
 21
1760.406722994667
 31
0.0
  0
TEXT
  5
829
330
21
100
AcDbEntity
  8
1
  6
Continuous
 62
     7
370
    18
100
AcDbText
 10
3820.034536759326
 20
5088.944059655652
 30
0.0
 40
80.0
  1
（弱者対策型）
 41
0.787671
 11
3820.034536759326
 21
5074.32477031555
 31
0.0
100
AcDbText
 73
     1
  0
ENDSEC
  0
SECTION
  2
OBJECTS
  0
DICTIONARY
  5
C
330
0
100
AcDbDictionary
281
     1
  3
ACAD_COLOR
350
1C
  3
ACAD_GROUP
350
D
  3
ACAD_LAYOUT
350
1A
  3
ACAD_MATERIAL
350
1B
  3
ACAD_MLINESTYLE
350
17
  3
ACAD_PLOTSETTINGS
350
19
  3
ACAD_PLOTSTYLENAME
350
E
  3
ACDBHEADERROUNDTRIPXREC
350
830
  3
AcDbVariableDictionary
350
82B
  0
DICTIONARY
  5
41
330
2
100
AcDbDictionary
280
     1
281
     1
  3
ACAD_LAYERSTATES
360
42
  0
DICTIONARY
  5
32
330
31
100
AcDbDictionary
280
     1
281
     1
  3
ADSK_XREC_LAYER_RECONCILED
360
33
  0
DICTIONARY
  5
35
330
34
100
AcDbDictionary
280
     1
281
     1
  3
ADSK_XREC_LAYER_RECONCILED
360
36
  0
DICTIONARY
  5
38
330
37
100
AcDbDictionary
280
     1
281
     1
  3
ADSK_XREC_LAYER_RECONCILED
360
39
  0
DICTIONARY
  5
1C
102
{ACAD_REACTORS
330
C
102
}
330
C
100
AcDbDictionary
281
     1
  0
DICTIONARY
  5
D
102
{ACAD_REACTORS
330
C
102
}
330
C
100
AcDbDictionary
281
     1
  0
DICTIONARY
  5
1A
102
{ACAD_REACTORS
330
C
102
}
330
C
100
AcDbDictionary
281
     1
  3
Model
350
24
  3
レイアウト1
350
20
  3
レイアウト2
350
28
  0
DICTIONARY
  5
1B
102
{ACAD_REACTORS
330
C
102
}
330
C
100
AcDbDictionary
281
     1
  0
DICTIONARY
  5
17
102
{ACAD_REACTORS
330
C
102
}
330
C
100
AcDbDictionary
281
     1
  3
Standard
350
18
  0
DICTIONARY
  5
19
102
{ACAD_REACTORS
330
C
102
}
330
C
100
AcDbDictionary
281
     1
  0
ACDBDICTIONARYWDFLT
  5
E
102
{ACAD_REACTORS
330
C
102
}
330
C
100
AcDbDictionary
281
     1
  3
Normal
350
F
100
AcDbDictionaryWithDefault
340
F
  0
DICTIONARY
  5
830
102
{ACAD_REACTORS
330
C
102
}
330
C
100
AcDbDictionary
281
     1
  0
DICTIONARY
  5
82B
102
{ACAD_REACTORS
330
C
102
}
330
C
100
AcDbDictionary
281
     1
  3
DIMASSOC
350
82D
  3
HIDETEXT
350
82C
  3
PROJECTNAME
350
82E
  0
DICTIONARY
  5
42
102
{ACAD_REACTORS
330
41
102
}
330
41
100
AcDbDictionary
281
     1
  0
XRECORD
  5
33
102
{ACAD_REACTORS
330
32
102
}
330
32
100
AcDbXrecord
280
     1
290
     1
  0
XRECORD
  5
36
102
{ACAD_REACTORS
330
35
102
}
330
35
100
AcDbXrecord
280
     1
290
     1
  0
XRECORD
  5
39
102
{ACAD_REACTORS
330
38
102
}
330
38
100
AcDbXrecord
280
     1
290
     1
  0
LAYOUT
  5
24
102
{ACAD_XDICTIONARY
360
833
102
}
102
{ACAD_REACTORS
330
1A
102
}
330
1A
100
AcDbPlotSettings
  1

  2
Microsoft XPS Document Writer
  4

  6

 40
0.0
 41
0.0
 42
0.0
 43
0.0
 44
0.0
 45
0.0
 46
0.0
 47
0.0
 48
0.0
 49
0.0
140
0.0
141
0.0
142
1.0
143
1.0
 70
  1712
 72
     0
 73
     0
 74
     0
  7

 75
     0
147
1.0
148
0.0
149
0.0
100
AcDbLayout
  1
Model
 70
     1
 71
     0
 10
0.0
 20
0.0
 11
12.0
 21
9.0
 12
0.0
 22
0.0
 32
0.0
 14
0.0
 24
0.0
 34
0.0
 15
0.0
 25
0.0
 35
0.0
146
0.0
 13
0.0
 23
0.0
 33
0.0
 16
1.0
 26
0.0
 36
0.0
 17
0.0
 27
1.0
 37
0.0
 76
     0
330
21
  0
LAYOUT
  5
20
102
{ACAD_XDICTIONARY
360
831
102
}
102
{ACAD_REACTORS
330
1A
102
}
330
1A
100
AcDbPlotSettings
  1

  2
Microsoft XPS Document Writer
  4

  6

 40
0.0
 41
0.0
 42
0.0
 43
0.0
 44
0.0
 45
0.0
 46
0.0
 47
0.0
 48
0.0
 49
0.0
140
0.0
141
0.0
142
1.0
143
1.0
 70
   688
 72
     0
 73
     0
 74
     5
  7

 75
    16
147
1.0
148
0.0
149
0.0
100
AcDbLayout
  1
レイアウト1
 70
     1
 71
     1
 10
0.0
 20
0.0
 11
420.0
 21
297.0
 12
0.0
 22
0.0
 32
0.0
 14
1.000000000000000E+20
 24
1.000000000000000E+20
 34
1.000000000000000E+20
 15
-1.000000000000000E+20
 25
-1.000000000000000E+20
 35
-1.000000000000000E+20
146
0.0
 13
0.0
 23
0.0
 33
0.0
 16
1.0
 26
0.0
 36
0.0
 17
0.0
 27
1.0
 37
0.0
 76
     0
330
1D
  0
LAYOUT
  5
28
102
{ACAD_XDICTIONARY
360
835
102
}
102
{ACAD_REACTORS
330
1A
102
}
330
1A
100
AcDbPlotSettings
  1

  2
Microsoft XPS Document Writer
  4

  6

 40
0.0
 41
0.0
 42
0.0
 43
0.0
 44
0.0
 45
0.0
 46
0.0
 47
0.0
 48
0.0
 49
0.0
140
0.0
141
0.0
142
1.0
143
1.0
 70
   688
 72
     0
 73
     0
 74
     5
  7

 75
    16
147
1.0
148
0.0
149
0.0
100
AcDbLayout
  1
レイアウト2
 70
     1
 71
     2
 10
0.0
 20
0.0
 11
12.0
 21
9.0
 12
0.0
 22
0.0
 32
0.0
 14
0.0
 24
0.0
 34
0.0
 15
0.0
 25
0.0
 35
0.0
146
0.0
 13
0.0
 23
0.0
 33
0.0
 16
1.0
 26
0.0
 36
0.0
 17
0.0
 27
1.0
 37
0.0
 76
     0
330
25
  0
MLINESTYLE
  5
18
102
{ACAD_REACTORS
330
17
102
}
330
17
100
AcDbMlineStyle
  2
STANDARD
 70
     0
  3

 62
   256
 51
90.0
 52
90.0
 71
     2
 49
0.5
 62
   256
  6
BYLAYER
 49
-0.5
 62
   256
  6
BYLAYER
  0
ACDBPLACEHOLDER
  5
F
102
{ACAD_REACTORS
330
E
102
}
330
E
  0
DICTIONARYVAR
  5
82D
102
{ACAD_REACTORS
330
82B
102
}
330
82B
100
DictionaryVariables
280
     0
  1
2
  0
DICTIONARYVAR
  5
82C
102
{ACAD_REACTORS
330
82B
102
}
330
82B
100
DictionaryVariables
280
     0
  1
1
  0
DICTIONARYVAR
  5
82E
102
{ACAD_REACTORS
330
82B
102
}
330
82B
100
DictionaryVariables
280
     0
  1

  0
DICTIONARY
  5
833
330
24
100
AcDbDictionary
280
     1
281
     1
  3
ACAD_XREC_ROUNDTRIP
360
834
  0
DICTIONARY
  5
831
330
20
100
AcDbDictionary
280
     1
281
     1
  3
ACAD_XREC_ROUNDTRIP
360
832
  0
DICTIONARY
  5
835
330
28
100
AcDbDictionary
280
     1
281
     1
  3
ACAD_XREC_ROUNDTRIP
360
836
  0
XRECORD
  5
834
102
{ACAD_REACTORS
330
833
102
}
330
833
100
AcDbXrecord
280
     1
102
SHADEPLOT
 70
     0
102
SHADEPLOTRESLEVEL
 70
     2
102
SHADEPLOTCUSTOMDPI
 70
   300
  0
XRECORD
  5
832
102
{ACAD_REACTORS
330
831
102
}
330
831
100
AcDbXrecord
280
     1
102
SHADEPLOT
 70
     0
102
SHADEPLOTRESLEVEL
 70
     2
102
SHADEPLOTCUSTOMDPI
 70
   300
  0
XRECORD
  5
836
102
{ACAD_REACTORS
330
835
102
}
330
835
100
AcDbXrecord
280
     1
102
SHADEPLOT
 70
     0
102
SHADEPLOTRESLEVEL
 70
     2
102
SHADEPLOTCUSTOMDPI
 70
   300
  0
ENDSEC
  0
EOF
